  0
SECTION
  2
HEADER
  9
$ACADVER
  1
AC1015
  9
$ACADMAINTVER
 70
     6
  9
$DWGCODEPAGE
  3
ANSI_1252
  9
$INSBASE
 10
0.0
 20
0.0
 30
0.0
  9
$EXTMIN
 10
0.0
 20
0.0
 30
0.0
  9
$EXTMAX
 10
60.0
 20
38.0
 30
0.0
  9
$LIMMIN
 10
0.0
 20
0.0
  9
$LIMMAX
 10
60.0
 20
38.0
  9
$ORTHOMODE
 70
     0
  9
$REGENMODE
 70
     1
  9
$FILLMODE
 70
     1
  9
$QTEXTMODE
 70
     0
  9
$MIRRTEXT
 70
     1
  9
$LTSCALE
 40
1.0
  9
$ATTMODE
 70
     1
  9
$TEXTSIZE
 40
0.1666666667
  9
$TRACEWID
 40
0.05
  9
$TEXTSTYLE
  7
Standard
  9
$CLAYER
  8
0
  9
$CELTYPE
  6
ByLayer
  9
$CECOLOR
 62
   256
  9
$CELTSCALE
 40
1.0
  9
$DISPSILH
 70
     0
  9
$DIMSCALE
 40
1.0
  9
$DIMASZ
 40
0.09
  9
$DIMEXO
 40
0.05
  9
$DIMDLI
 40
0.38
  9
$DIMRND
 40
0.0
  9
$DIMDLE
 40
0.0
  9
$DIMEXE
 40
0.0625
  9
$DIMTP
 40
0.0
  9
$DIMTM
 40
0.0
  9
$DIMTXT
 40
0.1666666667
  9
$DIMCEN
 40
0.09
  9
$DIMTSZ
 40
0.0
  9
$DIMTOL
 70
     0
  9
$DIMLIM
 70
     0
  9
$DIMTIH
 70
     1
  9
$DIMTOH
 70
     1
  9
$DIMSE1
 70
     0
  9
$DIMSE2
 70
     0
  9
$DIMTAD
 70
     0
  9
$DIMZIN
 70
     0
  9
$DIMBLK
  1

  9
$DIMASO
 70
     1
  9
$DIMSHO
 70
     1
  9
$DIMPOST
  1

  9
$DIMAPOST
  1

  9
$DIMALT
 70
     0
  9
$DIMALTD
 70
     2
  9
$DIMALTF
 40
25.4
  9
$DIMLFAC
 40
24.0
  9
$DIMTOFL
 70
     0
  9
$DIMTVP
 40
0.0
  9
$DIMTIX
 70
     0
  9
$DIMSOXD
 70
     0
  9
$DIMSAH
 70
     0
  9
$DIMBLK1
  1

  9
$DIMBLK2
  1

  9
$DIMSTYLE
  2
Standard
  9
$DIMCLRD
 70
     0
  9
$DIMCLRE
 70
     0
  9
$DIMCLRT
 70
     0
  9
$DIMTFAC
 40
1.0
  9
$DIMGAP
 40
0.06
  9
$DIMJUST
 70
     0
  9
$DIMSD1
 70
     0
  9
$DIMSD2
 70
     0
  9
$DIMTOLJ
 70
     1
  9
$DIMTZIN
 70
     0
  9
$DIMALTZ
 70
     0
  9
$DIMALTTZ
 70
     0
  9
$DIMUPT
 70
     0
  9
$DIMDEC
 70
     2
  9
$DIMTDEC
 70
     2
  9
$DIMALTU
 70
     2
  9
$DIMALTTD
 70
     2
  9
$DIMTXSTY
  7
Standard
  9
$DIMAUNIT
 70
     0
  9
$DIMADEC
 70
     0
  9
$DIMALTRND
 40
0.0
  9
$DIMAZIN
 70
     0
  9
$DIMDSEP
 70
    46
  9
$DIMATFIT
 70
     3
  9
$DIMFRAC
 70
     0
  9
$DIMLDRBLK
  1

  9
$DIMLUNIT
 70
     2
  9
$DIMLWD
 70
    -2
  9
$DIMLWE
 70
    -2
  9
$DIMTMOVE
 70
     0
  9
$LUNITS
 70
     2
  9
$LUPREC
 70
     2
  9
$SKETCHINC
 40
0.1
  9
$FILLETRAD
 40
0.5
  9
$AUNITS
 70
     0
  9
$AUPREC
 70
     0
  9
$MENU
  1
.
  9
$ELEVATION
 40
0.0
  9
$PELEVATION
 40
0.0
  9
$THICKNESS
 40
0.0
  9
$LIMCHECK
 70
     0
  9
$CHAMFERA
 40
0.5
  9
$CHAMFERB
 40
0.5
  9
$CHAMFERC
 40
1.0
  9
$CHAMFERD
 40
0.0
  9
$SKPOLY
 70
     0
  9
$TDCREATE
 40
2455464.419822303
  9
$TDUCREATE
 40
2455464.628155637
  9
$TDUPDATE
 40
2455464.419822315
  9
$TDUUPDATE
 40
2455464.628155648
  9
$TDINDWG
 40
0.0000000116
  9
$TDUSRTIMER
 40
0.0000000116
  9
$USRTIMER
 70
     1
  9
$ANGBASE
 50
0.0
  9
$ANGDIR
 70
     0
  9
$PDMODE
 70
     0
  9
$PDSIZE
 40
-1.0
  9
$PLINEWID
 40
0.0
  9
$SPLFRAME
 70
     0
  9
$SPLINETYPE
 70
     6
  9
$SPLINESEGS
 70
     8
  9
$HANDSEED
  5
1B7
  9
$SURFTAB1
 70
     6
  9
$SURFTAB2
 70
     6
  9
$SURFTYPE
 70
     6
  9
$SURFU
 70
     6
  9
$SURFV
 70
     6
  9
$UCSBASE
  2

  9
$UCSNAME
  2

  9
$UCSORG
 10
0.0
 20
0.0
 30
0.0
  9
$UCSXDIR
 10
1.0
 20
0.0
 30
0.0
  9
$UCSYDIR
 10
0.0
 20
1.0
 30
0.0
  9
$UCSORTHOREF
  2

  9
$UCSORTHOVIEW
 70
     0
  9
$UCSORGTOP
 10
0.0
 20
0.0
 30
0.0
  9
$UCSORGBOTTOM
 10
0.0
 20
0.0
 30
0.0
  9
$UCSORGLEFT
 10
0.0
 20
0.0
 30
0.0
  9
$UCSORGRIGHT
 10
0.0
 20
0.0
 30
0.0
  9
$UCSORGFRONT
 10
0.0
 20
0.0
 30
0.0
  9
$UCSORGBACK
 10
0.0
 20
0.0
 30
0.0
  9
$PUCSBASE
  2

  9
$PUCSNAME
  2

  9
$PUCSORG
 10
0.0
 20
0.0
 30
0.0
  9
$PUCSXDIR
 10
1.0
 20
0.0
 30
0.0
  9
$PUCSYDIR
 10
0.0
 20
1.0
 30
0.0
  9
$PUCSORTHOREF
  2

  9
$PUCSORTHOVIEW
 70
     0
  9
$PUCSORGTOP
 10
0.0
 20
0.0
 30
0.0
  9
$PUCSORGBOTTOM
 10
0.0
 20
0.0
 30
0.0
  9
$PUCSORGLEFT
 10
0.0
 20
0.0
 30
0.0
  9
$PUCSORGRIGHT
 10
0.0
 20
0.0
 30
0.0
  9
$PUCSORGFRONT
 10
0.0
 20
0.0
 30
0.0
  9
$PUCSORGBACK
 10
0.0
 20
0.0
 30
0.0
  9
$USERI1
 70
     0
  9
$USERI2
 70
     0
  9
$USERI3
 70
     0
  9
$USERI4
 70
     0
  9
$USERI5
 70
     0
  9
$USERR1
 40
0.0
  9
$USERR2
 40
0.0
  9
$USERR3
 40
0.0
  9
$USERR4
 40
0.0
  9
$USERR5
 40
0.0
  9
$WORLDVIEW
 70
     1
  9
$SHADEDGE
 70
     3
  9
$SHADEDIF
 70
    70
  9
$TILEMODE
 70
     1
  9
$MAXACTVP
 70
    64
  9
$PINSBASE
 10
0.0
 20
0.0
 30
0.0
  9
$PLIMCHECK
 70
     0
  9
$PEXTMIN
 10
1.0000000000E+20
 20
1.0000000000E+20
 30
1.0000000000E+20
  9
$PEXTMAX
 10
-1.0000000000E+20
 20
-1.0000000000E+20
 30
-1.0000000000E+20
  9
$PLIMMIN
 10
0.0
 20
0.0
  9
$PLIMMAX
 10
12.0
 20
9.0
  9
$UNITMODE
 70
     0
  9
$VISRETAIN
 70
     1
  9
$PLINEGEN
 70
     0
  9
$PSLTSCALE
 70
     1
  9
$TREEDEPTH
 70
  3020
  9
$CMLSTYLE
  2
Standard
  9
$CMLJUST
 70
     0
  9
$CMLSCALE
 40
1.0
  9
$PROXYGRAPHICS
 70
     1
  9
$MEASUREMENT
 70
     0
  9
$CELWEIGHT
370
    -1
  9
$ENDCAPS
280
     0
  9
$JOINSTYLE
280
     0
  9
$LWDISPLAY
290
     1
  9
$INSUNITS
 70
     1
  9
$HYPERLINKBASE
  1

  9
$STYLESHEET
  1

  9
$XEDIT
290
     1
  9
$CEPSNTYPE
380
     0
  9
$PSTYLEMODE
290
     1
  9
$FINGERPRINTGUID
  2
{0775C357-2024-4F75-A6EB-0811FAE4CB83}
  9
$VERSIONGUID
  2
{FAEB1C32-E019-11D5-929B-00C0DF256EC4}
  9
$EXTNAMES
290
     1
  9
$PSVPSCALE
 40
0.0
  9
$OLESTARTUP
290
     0
  0
ENDSEC
  0
SECTION
  2
CLASSES
  0
CLASS
  1
ACDBDICTIONARYWDFLT
  2
AcDbDictionaryWithDefault
  3
ObjectDBX Classes
 90
        0
280
     0
281
     0
  0
CLASS
  1
VISUALSTYLE
  2
AcDbVisualStyle
  3
ObjectDBX Classes
 90
     4095
280
     0
281
     0
  0
CLASS
  1
MATERIAL
  2
AcDbMaterial
  3
ObjectDBX Classes
 90
     1153
280
     0
281
     0
  0
CLASS
  1
SCALE
  2
AcDbScale
  3
ObjectDBX Classes
 90
     1153
280
     0
281
     0
  0
CLASS
  1
DICTIONARYVAR
  2
AcDbDictionaryVar
  3
ObjectDBX Classes
 90
        0
280
     0
281
     0
  0
CLASS
  1
ACDBPLACEHOLDER
  2
AcDbPlaceHolder
  3
ObjectDBX Classes
 90
        0
280
     0
281
     0
  0
CLASS
  1
LAYOUT
  2
AcDbLayout
  3
ObjectDBX Classes
 90
        0
280
     0
281
     0
  0
ENDSEC
  0
SECTION
  2
TABLES
  0
TABLE
  2
VPORT
  5
8
330
0
100
AcDbSymbolTable
 70
     1
  0
VPORT
  5
29
330
8
100
AcDbSymbolTableRecord
100
AcDbViewportTableRecord
  2
*Active
 70
     0
 10
0.0
 20
0.0
 11
1.0
 21
1.0
 12
30.0
 22
19.0
 13
0.0
 23
0.0
 14
0.5
 24
0.5
 15
0.5
 25
0.5
 16
0.0
 26
0.0
 36
1.0
 17
0.0
 27
0.0
 37
0.0
 40
38.0
 41
1.5789473684
 42
50.0
 43
0.0
 44
0.0
 50
0.0
 51
0.0
 71
     0
 72
  2000
 73
     1
 74
     3
 75
     0
 76
     0
 77
     0
 78
     0
281
     0
 65
     1
110
0.0
120
0.0
130
0.0
111
1.0
121
0.0
131
0.0
112
0.0
122
1.0
132
0.0
 79
     0
146
0.0
  0
ENDTAB
  0
TABLE
  2
LTYPE
  5
5
330
0
100
AcDbSymbolTable
 70
     6
  0
LTYPE
  5
14
330
5
100
AcDbSymbolTableRecord
100
AcDbLinetypeTableRecord
  2
ByBlock
 70
     0
  3

 72
    65
 73
     0
 40
0.0
  0
LTYPE
  5
15
330
5
100
AcDbSymbolTableRecord
100
AcDbLinetypeTableRecord
  2
ByLayer
 70
     0
  3

 72
    65
 73
     0
 40
0.0
  0
LTYPE
  5
16
330
5
100
AcDbSymbolTableRecord
100
AcDbLinetypeTableRecord
  2
Continuous
 70
     0
  3
Solid line
 72
    65
 73
     0
 40
0.0
  0
LTYPE
  5
3F
330
5
100
AcDbSymbolTableRecord
100
AcDbLinetypeTableRecord
  2
HIDDEN
 70
     0
  3
Hidden __ __ __ __ __ __ __ __ __ __ __ __ __ __
 72
    65
 73
     2
 40
0.075
 49
0.05
 74
     0
 49
-0.025
 74
     0
  0
LTYPE
  5
40
330
5
100
AcDbSymbolTableRecord
100
AcDbLinetypeTableRecord
  2
PHANTOM
 70
     0
  3
Phantom ______  __  __  ______  __  __  ______
 72
    65
 73
     6
 40
0.5
 49
0.25
 74
     0
 49
-0.05
 74
     0
 49
0.05
 74
     0
 49
-0.05
 74
     0
 49
0.05
 74
     0
 49
-0.05
 74
     0
  0
LTYPE
  5
41
330
5
100
AcDbSymbolTableRecord
100
AcDbLinetypeTableRecord
  2
CENTER
 70
     0
  3
Center ____ _ ____ _ ____ _ ____ _ ____ _ ____
 72
    65
 73
     4
 40
0.4
 49
0.25
 74
     0
 49
-0.05
 74
     0
 49
0.05
 74
     0
 49
-0.05
 74
     0
  0
LTYPE
  5
42
330
5
100
AcDbSymbolTableRecord
100
AcDbLinetypeTableRecord
  2
CENTERX2
 70
     0
  3
Center (2x) ________  __  ________  __  _____
 72
    65
 73
     4
 40
0.8
 49
0.5
 74
     0
 49
-0.1
 74
     0
 49
0.1
 74
     0
 49
-0.1
 74
     0
  0
LTYPE
  5
43
330
5
100
AcDbSymbolTableRecord
100
AcDbLinetypeTableRecord
  2
DOT2
 70
     0
  3
Dot (.5x) ........................................
 72
    65
 73
     2
 40
0.025
 49
0.0
 74
     0
 49
-0.025
 74
     0
  0
ENDTAB
  0
TABLE
  2
LAYER
  5
2
330
0
100
AcDbSymbolTable
 70
     2
  0
LAYER
  5
10
330
2
100
AcDbSymbolTableRecord
100
AcDbLayerTableRecord
  2
0
 70
     0
 62
     7
  6
Continuous
370
    -3
390
F
  0
LAYER
  5
44
330
2
100
AcDbSymbolTableRecord
100
AcDbLayerTableRecord
  2
FORMAT
 70
     0
 62
     7
  6
Continuous
370
    -3
390
F
  0
ENDTAB
  0
TABLE
  2
STYLE
  5
3
330
0
100
AcDbSymbolTable
 70
     3
  0
STYLE
  5
11
330
3
100
AcDbSymbolTableRecord
100
AcDbTextStyleTableRecord
  2
Standard
 70
     0
 40
0.0
 41
1.0
 50
0.0
 71
     0
 42
0.2
  3
txt
  4

  0
STYLE
  5
4B
330
3
100
AcDbSymbolTableRecord
100
AcDbTextStyleTableRecord
  2
SLDTEXTSTYLE0
 70
     0
 40
0.0
 41
0.96
 50
0.0
 71
     0
 42
0.2
  3
TXT
  4

  0
STYLE
  5
70
330
3
100
AcDbSymbolTableRecord
100
AcDbTextStyleTableRecord
  2
SLDTEXTSTYLE1
 70
     0
 40
0.0
 41
0.8833333333
 50
0.0
 71
     0
 42
0.2
  3
TXT
  4

  0
ENDTAB
  0
TABLE
  2
VIEW
  5
6
330
0
100
AcDbSymbolTable
 70
     0
  0
ENDTAB
  0
TABLE
  2
UCS
  5
7
330
0
100
AcDbSymbolTable
 70
     0
  0
ENDTAB
  0
TABLE
  2
APPID
  5
9
330
0
100
AcDbSymbolTable
 70
     1
  0
APPID
  5
12
330
9
100
AcDbSymbolTableRecord
100
AcDbRegAppTableRecord
  2
ACAD
 70
     0
  0
ENDTAB
  0
TABLE
  2
DIMSTYLE
  5
A
330
0
100
AcDbSymbolTable
 70
     1
100
AcDbDimStyleTable
  0
DIMSTYLE
105
27
330
A
100
AcDbSymbolTableRecord
100
AcDbDimStyleTableRecord
  2
Standard
 70
     0
340
11
  0
ENDTAB
  0
TABLE
  2
BLOCK_RECORD
  5
1
330
0
100
AcDbSymbolTable
 70
     3
  0
BLOCK_RECORD
  5
1F
330
1
100
AcDbSymbolTableRecord
100
AcDbBlockTableRecord
  2
*Model_Space
340
22
  0
BLOCK_RECORD
  5
1B
330
1
100
AcDbSymbolTableRecord
100
AcDbBlockTableRecord
  2
*Paper_Space
340
1E
  0
BLOCK_RECORD
  5
23
330
1
100
AcDbSymbolTableRecord
100
AcDbBlockTableRecord
  2
*Paper_Space0
340
26
  0
BLOCK_RECORD
  5
45
330
1
100
AcDbSymbolTableRecord
100
AcDbBlockTableRecord
  2
SW_NOTE_0
340
0
102
{BLKREFS
331
73
102
}
  0
BLOCK_RECORD
  5
48
330
1
100
AcDbSymbolTableRecord
100
AcDbBlockTableRecord
  2
SW_NOTE_0_1
340
0
102
{BLKREFS
331
72
102
}
  0
ENDTAB
  0
ENDSEC
  0
SECTION
  2
BLOCKS
  0
BLOCK
  5
20
330
1F
100
AcDbEntity
  8
0
100
AcDbBlockBegin
  2
*Model_Space
 70
     0
 10
0.0
 20
0.0
 30
0.0
  3
*Model_Space
  1

  0
ENDBLK
  5
21
330
1F
100
AcDbEntity
  8
0
100
AcDbBlockEnd
  0
BLOCK
  5
1C
330
1B
100
AcDbEntity
 67
     1
  8
0
100
AcDbBlockBegin
  2
*Paper_Space
 70
     0
 10
0.0
 20
0.0
 30
0.0
  3
*Paper_Space
  1

  0
ENDBLK
  5
1D
330
1B
100
AcDbEntity
 67
     1
  8
0
100
AcDbBlockEnd
  0
BLOCK
  5
24
330
23
100
AcDbEntity
  8
0
100
AcDbBlockBegin
  2
*Paper_Space0
 70
     0
 10
0.0
 20
0.0
 30
0.0
  3
*Paper_Space0
  1

  0
ENDBLK
  5
25
330
23
100
AcDbEntity
  8
0
100
AcDbBlockEnd
  0
BLOCK
  5
46
330
45
100
AcDbEntity
  8
0
100
AcDbBlockBegin
  2
SW_NOTE_0
 70
     0
 10
0.0
 20
0.0
 30
0.0
  3
SW_NOTE_0
  1

  0
INSERT
  5
72
330
45
100
AcDbEntity
  8
FORMAT
 62
     7
100
AcDbBlockReference
  2
SW_NOTE_0_1
 10
6.1082780987
 20
1.6757404968
 30
0.0
  0
ENDBLK
  5
47
330
45
100
AcDbEntity
  8
0
100
AcDbBlockEnd
  0
BLOCK
  5
49
330
48
100
AcDbEntity
  8
0
100
AcDbBlockBegin
  2
SW_NOTE_0_1
 70
     0
 10
0.0
 20
0.0
 30
0.0
  3
SW_NOTE_0_1
  1

  0
MTEXT
  5
6E
330
48
100
AcDbEntity
  8
FORMAT
 62
     0
100
AcDbMText
 10
0.0
 20
1.7456125643
 30
0.0
 40
1.3541666667
 41
0.0
 71
     1
 72
     1
  1
Titus
  7
SLDTEXTSTYLE0
 73
     1
 44
1.0
  0
MTEXT
  5
6F
330
48
100
AcDbEntity
  8
FORMAT
 62
     0
100
AcDbMText
 10
0.0
 20
-1.8654984665
 30
0.0
 40
1.3541666667
 41
0.0
 71
     1
 72
     1
  1
MDV
  7
SLDTEXTSTYLE0
 73
     1
 44
1.0
  0
MTEXT
  5
71
330
48
100
AcDbEntity
  8
FORMAT
 62
     0
100
AcDbMText
 10
0.0
 20
-5.4766094973
 30
0.0
 40
1.3541666667
 41
0.0
 71
     1
 72
     1
  1
Size 7
  7
SLDTEXTSTYLE1
 73
     1
 44
1.0
  0
ENDBLK
  5
4A
330
48
100
AcDbEntity
  8
0
100
AcDbBlockEnd
  0
ENDSEC
  0
SECTION
  2
ENTITIES
  0
INSERT
  5
73
330
1F
100
AcDbEntity
  8
FORMAT
100
AcDbBlockReference
  2
SW_NOTE_0
 10
13.9225256153
 20
19.8187829689
 30
0.0
  0
ARC
  5
74
330
1F
100
AcDbEntity
  8
0
  6
Continuous
 62
     7
370
    30
100
AcDbCircle
 10
4.2736084039
 20
20.4970544044
 30
0.0
 40
0.1250000000000012
100
AcDbArc
 50
180.0
 51
244.9126169237
  0
LINE
  5
75
330
1F
100
AcDbEntity
  8
0
  6
Continuous
 62
     7
370
    30
100
AcDbLine
 10
0.9926084039
 20
20.4970544044
 30
0.0
 11
4.1486084039
 21
20.4970544044
 31
0.0
  0
ARC
  5
76
330
1F
100
AcDbEntity
  8
0
  6
Continuous
 62
     7
370
    30
100
AcDbCircle
 10
4.2736084039
 20
17.4980544044
 30
0.0
 40
0.1250000000000012
100
AcDbArc
 50
115.0873830763
 51
180.0
  0
LINE
  5
77
330
1F
100
AcDbEntity
  8
0
  6
Continuous
 62
     7
370
    30
100
AcDbLine
 10
4.1486084039
 20
17.4980544044
 30
0.0
 11
0.9926084039
 21
17.4980544044
 31
0.0
  0
LINE
  5
78
330
1F
100
AcDbEntity
  8
0
  6
Continuous
 62
     7
370
    30
100
AcDbLine
 10
3.6776084039
 20
12.9769556531
 30
0.0
 11
3.6776084039
 21
13.3942994992
 31
0.0
  0
LINE
  5
79
330
1F
100
AcDbEntity
  8
0
  6
Continuous
 62
     7
370
    30
100
AcDbLine
 10
3.6776084039
 20
13.7514140382
 30
0.0
 11
3.8168574995
 21
13.852313827
 31
0.0
  0
LINE
  5
7A
330
1F
100
AcDbEntity
  8
0
  6
Continuous
 62
     7
370
    30
100
AcDbLine
 10
3.6776084039
 20
14.1441236239
 30
0.0
 11
3.6776084039
 21
13.7514140382
 31
0.0
  0
LINE
  5
7B
330
1F
100
AcDbEntity
  8
0
  6
Continuous
 62
     7
370
    30
100
AcDbLine
 10
3.6576084039
 20
13.7588978565
 30
0.0
 11
3.6776084039
 21
13.7588978565
 31
0.0
  0
LINE
  5
7C
330
1F
100
AcDbEntity
  8
0
  6
Continuous
 62
     7
370
    30
100
AcDbLine
 10
3.6776084039
 20
13.7270481056
 30
0.0
 11
3.6776084039
 21
13.7514140382
 31
0.0
  0
LWPOLYLINE
  5
7D
330
1F
100
AcDbEntity
  8
0
  6
Continuous
 62
     7
370
    30
100
AcDbPolyline
 90
        3
 70
   128
 43
0.0
 10
3.5976084039
 20
10.738442929
 10
3.5535136225
 20
10.7528385977
 10
3.5505190895
 20
10.7543100461
  0
LINE
  5
7E
330
1F
100
AcDbEntity
  8
0
  6
Continuous
 62
     7
370
    30
100
AcDbLine
 10
3.4430393236
 20
13.3126548208
 30
0.0
 11
3.5505438408
 21
13.3908796093
 31
0.0
  0
LINE
  5
7F
330
1F
100
AcDbEntity
  8
0
  6
Continuous
 62
     7
370
    30
100
AcDbLine
 10
3.5776084039
 20
12.9732890543
 30
0.0
 11
3.5776084039
 21
13.3988027477
 31
0.0
  0
LINE
  5
80
330
1F
100
AcDbEntity
  8
0
  6
Continuous
 62
     7
370
    30
100
AcDbLine
 10
3.4096114443
 20
13.8730825993
 30
0.0
 11
3.5776084039
 21
13.7508409765
 31
0.0
  0
LINE
  5
81
330
1F
100
AcDbEntity
  8
0
  6
Continuous
 62
     7
370
    30
100
AcDbLine
 10
3.5776084039
 20
14.148950996
 30
0.0
 11
3.5776084039
 21
13.7508409765
 31
0.0
  0
LINE
  5
82
330
1F
100
AcDbEntity
  8
0
  6
Continuous
 62
     7
370
    30
100
AcDbLine
 10
3.5776084039
 20
13.7508409765
 30
0.0
 11
3.5776084039
 21
13.7232958566
 31
0.0
  0
LWPOLYLINE
  5
83
330
1F
100
AcDbEntity
  8
0
  6
Continuous
 62
     7
370
    30
100
AcDbPolyline
 90
        3
 70
   128
 43
0.0
 10
3.5437194382
 20
21.631949182
 10
3.5535136225
 20
21.6268385977
 10
3.5976084039
 20
21.612442929
  0
LINE
  5
84
330
1F
100
AcDbEntity
  8
0
  6
Continuous
 62
     7
370
    30
100
AcDbLine
 10
3.6376084039
 20
21.6161161538
 30
0.0
 11
3.6576084039
 21
21.6161161538
 31
0.0
  0
LINE
  5
85
330
1F
100
AcDbEntity
  8
0
  6
Continuous
 62
     7
370
    30
100
AcDbLine
 10
3.5976084039
 20
21.6161161538
 30
0.0
 11
3.5776084039
 21
21.6161161538
 31
0.0
  0
ARC
  5
86
330
1F
100
AcDbEntity
  8
0
  6
Continuous
 62
     7
370
    30
100
AcDbCircle
 10
3.6176481604
 20
21.7392034334
 30
0.0
 40
0.0706296178336106
100
AcDbArc
 50
212.3829239766
 51
327.2039897705
  0
LINE
  5
87
330
1F
100
AcDbEntity
  8
0
  6
Continuous
 62
     7
370
    30
100
AcDbLine
 10
3.5976084039
 20
21.612442929
 30
0.0
 11
3.5976084039
 21
21.6161161538
 31
0.0
  0
LWPOLYLINE
  5
88
330
1F
100
AcDbEntity
  8
0
  6
Continuous
 62
     7
370
    30
100
AcDbPolyline
 90
       10
 70
   128
 43
0.0
 10
3.6176084039
 20
27.2373825898
 10
3.5945334988
 20
27.2341370517
 10
3.5749715389
 20
27.2248945411
 10
3.5619006551
 20
27.2110621466
 10
3.5573107711
 20
27.1947457247
 10
3.5619006551
 20
27.1784293029
 10
3.5749715389
 20
27.1645969083
 10
3.5945334988
 20
27.1553543978
 10
3.6176084039
 20
27.1521088597
 10
3.6181952463
 20
27.152110879
  0
LWPOLYLINE
  5
89
330
1F
100
AcDbEntity
  8
0
  6
Continuous
 62
     7
370
    30
100
AcDbPolyline
 90
        9
 70
   128
 43
0.0
 10
3.6221748162
 20
27.1522313013
 10
3.640683309
 20
27.1553543978
 10
3.660245269
 20
27.1645969083
 10
3.6733161528
 20
27.1784293029
 10
3.6779060368
 20
27.1947457247
 10
3.6733161528
 20
27.2110621466
 10
3.660245269
 20
27.2248945411
 10
3.640683309
 20
27.2341370517
 10
3.6176084039
 20
27.2373825898
  0
LINE
  5
8A
330
1F
100
AcDbEntity
  8
0
  6
Continuous
 62
     7
370
    30
100
AcDbLine
 10
3.5976084039
 20
10.7421161538
 30
0.0
 11
3.5776084039
 21
10.7421161538
 31
0.0
  0
LINE
  5
8B
330
1F
100
AcDbEntity
  8
0
  6
Continuous
 62
     7
370
    30
100
AcDbLine
 10
3.6376084039
 20
10.7421161538
 30
0.0
 11
3.6576084039
 21
10.7421161538
 31
0.0
  0
ARC
  5
8C
330
1F
100
AcDbEntity
  8
0
  6
Continuous
 62
     7
370
    30
100
AcDbCircle
 10
3.6115312177
 20
10.8577482367
 30
0.0
 40
0.0615748705622159
100
AcDbArc
 50
209.8607973161
 51
275.6640786166
  0
ARC
  5
8D
330
1F
100
AcDbEntity
  8
0
  6
Continuous
 62
     7
370
    30
100
AcDbCircle
 10
3.6238318338
 20
10.8572454768
 30
0.0
 40
0.0610893106217055
100
AcDbArc
 50
264.152889581
 51
331.5691241043
  0
LINE
  5
8E
330
1F
100
AcDbEntity
  8
0
  6
Continuous
 62
     7
370
    30
100
AcDbLine
 10
3.5976084039
 20
10.736531497
 30
0.0
 11
3.5976084039
 21
10.7421161538
 31
0.0
  0
LWPOLYLINE
  5
8F
330
1F
100
AcDbEntity
  8
0
  6
Continuous
 62
     7
370
    30
100
AcDbPolyline
 90
       17
 70
   128
 43
0.0
 10
3.6176084039
 20
16.2781088597
 10
3.5945334988
 20
16.2813543978
 10
3.5749715389
 20
16.2905969083
 10
3.5619006551
 20
16.3044293029
 10
3.5573107711
 20
16.3207457247
 10
3.5619006551
 20
16.3370621466
 10
3.5749715389
 20
16.3508945411
 10
3.5945334988
 20
16.3601370517
 10
3.6176084039
 20
16.3633825898
 10
3.640683309
 20
16.3601370517
 10
3.660245269
 20
16.3508945411
 10
3.6733161528
 20
16.3370621466
 10
3.6779060368
 20
16.3207457247
 10
3.6733161528
 20
16.3044293029
 10
3.660245269
 20
16.2905969083
 10
3.640683309
 20
16.2813543978
 10
3.6176084039
 20
16.2781088597
  0
ARC
  5
90
330
1F
100
AcDbEntity
  8
0
  6
Continuous
 62
     7
370
    30
100
AcDbCircle
 10
3.6176084039
 20
13.7767927376
 30
0.0
 40
0.0400381387231024
100
AcDbArc
 50
236.2710403097
 51
303.7289596903
  0
LINE
  5
91
330
1F
100
AcDbEntity
  8
0
  6
Continuous
 62
     7
370
    30
100
AcDbLine
 10
3.6576084039
 20
13.4049909125
 30
0.0
 11
3.6576084039
 21
12.9733304547
 31
0.0
  0
LINE
  5
92
330
1F
100
AcDbEntity
  8
0
  6
Continuous
 62
     7
370
    30
100
AcDbLine
 10
3.6576084039
 20
13.7564229828
 30
0.0
 11
3.6398401755
 21
13.7434940757
 31
0.0
  0
LINE
  5
93
330
1F
100
AcDbEntity
  8
0
  6
Continuous
 62
     7
370
    30
100
AcDbLine
 10
3.6576084039
 20
14.1498523913
 30
0.0
 11
3.6576084039
 21
13.7564229828
 31
0.0
  0
LINE
  5
94
330
1F
100
AcDbEntity
  8
0
  6
Continuous
 62
     7
370
    30
100
AcDbLine
 10
3.5953766324
 20
13.7434940757
 30
0.0
 11
3.5776084039
 21
13.7564229828
 31
0.0
  0
LINE
  5
95
330
1F
100
AcDbEntity
  8
0
  6
Continuous
 62
     7
370
    30
100
AcDbLine
 10
3.6576084039
 20
13.7233919838
 30
0.0
 11
3.6576084039
 21
13.7564229828
 31
0.0
  0
LINE
  5
96
330
1F
100
AcDbEntity
  8
0
  6
Continuous
 62
     7
370
    30
100
AcDbLine
 10
4.1486084039
 20
20.4970544044
 30
0.0
 11
4.1486084039
 21
28.3720543726
 31
0.0
  0
SPLINE
  5
97
330
1F
100
AcDbEntity
  8
0
  6
Continuous
 62
     7
370
    30
100
AcDbSpline
210
0.0
220
0.0
230
1.0
 70
     8
 71
     3
 72
    11
 73
     7
 74
     0
 42
0.00000001
 43
0.00000001
 40
0.0
 40
0.0
 40
0.0
 40
0.0
 40
0.1329042380580645
 40
0.4312463682671233
 40
0.7295884976966467
 40
1.0
 40
1.0
 40
1.0
 40
1.0
 10
4.148608403939498
 20
28.37205437262724
 30
0.0
 10
4.148889450859076
 20
28.37829337599262
 30
0.0
 10
4.149801389147546
 20
28.39853763292706
 30
0.0
 10
4.161233901158872
 20
28.43150257995553
 30
0.0
 10
4.185935074045395
 20
28.46520773408141
 30
0.0
 10
4.209435314345791
 20
28.47835106590546
 30
0.0
 10
4.220608403939532
 20
28.48460000728448
 30
0.0
  0
SPLINE
  5
98
330
1F
100
AcDbEntity
  8
0
  6
Continuous
 62
     7
370
    30
100
AcDbSpline
210
0.0
220
0.0
230
1.0
 70
     8
 71
     3
 72
    12
 73
     8
 74
     0
 42
0.00000001
 43
0.00000001
 40
0.0
 40
0.0
 40
0.0
 40
0.0
 40
0.0825572666248417
 40
0.3815763867985559
 40
0.6805955088847979
 40
0.9796146332279477
 40
0.9999999999999999
 40
0.9999999999999999
 40
0.9999999999999999
 40
0.9999999999999999
 10
4.220608403939532
 20
28.48369628384856
 30
0.0
 10
4.216947171910205
 20
28.48242154178904
 30
0.0
 10
4.200025103798003
 20
28.47652973493723
 30
0.0
 10
4.176235782489434
 20
28.45325697825682
 30
0.0
 10
4.154340682671822
 20
28.41716885787302
 30
0.0
 10
4.14872727781699
 20
28.38794794131121
 30
0.0
 10
4.148615535663817
 20
28.37300789204348
 30
0.0
 10
4.148608403939498
 20
28.37205437262724
 30
0.0
  0
LINE
  5
99
330
1F
100
AcDbEntity
  8
0
  6
Continuous
 62
     7
370
    30
100
AcDbLine
 10
0.9926084039
 20
28.3720543726
 30
0.0
 11
4.1486084039
 21
28.3720543726
 31
0.0
  0
SPLINE
  5
9A
330
1F
100
AcDbEntity
  8
0
  6
Continuous
 62
     7
370
    30
100
AcDbSpline
210
0.0
220
0.0
230
1.0
 70
    11
 71
     3
 72
    26
 73
    22
 74
     0
 42
0.00000001
 43
0.00000001
 40
0.0
 40
0.0
 40
0.0
 40
0.0
 40
0.0536783583723543
 40
0.1073563481637772
 40
0.1610439027721097
 40
0.2147376843335068
 40
0.2684210742225089
 40
0.3220936788508518
 40
0.3757719299467707
 40
0.4294634501588565
 40
0.4831551565643536
 40
0.5368336654817447
 40
0.5905061965768483
 40
0.6441892972349595
 40
0.697883018394256
 40
0.7515708353915238
 40
0.8052454438692866
 40
0.8589201513785032
 40
0.9126081075048902
 40
0.9663017936034185
 40
0.9999999999999999
 40
0.9999999999999999
 40
0.9999999999999999
 40
0.9999999999999999
 10
3.617608403939514
 20
27.28428932247892
 30
0.0
 10
3.628148752137576
 20
27.28357454473882
 30
0.0
 10
3.649229376158693
 20
27.28214499416661
 30
0.0
 10
3.677286454753187
 20
27.27097075365758
 30
0.0
 10
3.698619179376233
 20
27.25442313166952
 30
0.0
 10
3.710820433581419
 20
27.23361096901547
 30
0.0
 10
3.712512267782509
 20
27.21099664508131
 30
0.0
 10
3.703507712432806
 20
27.18907404646198
 30
0.0
 10
3.684823016297223
 20
27.17037277233792
 30
0.0
 10
3.658559341779277
 20
27.15708254146503
 30
0.0
 10
3.627676960934371
 20
27.15079190192682
 30
0.0
 10
3.595662818660551
 20
27.15225800771325
 30
0.0
 10
3.566125287592623
 20
27.16130095033058
 30
0.0
 10
3.542388120888369
 20
27.17683679694624
 30
0.0
 10
3.527127572049261
 20
27.19702568014524
 30
0.0
 10
3.522068631224717
 20
27.21951572010062
 30
0.0
 10
3.52777833778785
 20
27.241729922523
 30
0.0
 10
3.543614273081979
 20
27.26123555377223
 30
0.0
 10
3.567778612157503
 20
27.27577858632194
 30
0.0
 10
3.593910700387974
 20
27.28326057031258
 30
0.0
 10
3.611013561646762
 20
27.28400303067513
 30
0.0
 10
3.617608403939514
 20
27.28428932247892
 30
0.0
  0
SPLINE
  5
9B
330
1F
100
AcDbEntity
  8
0
  6
Continuous
 62
     7
370
    30
100
AcDbSpline
210
0.0
220
0.0
230
1.0
 70
    11
 71
     3
 72
    26
 73
    22
 74
     0
 42
0.00000001
 43
0.00000001
 40
0.0
 40
0.0
 40
0.0
 40
0.0
 40
0.0536783583723537
 40
0.1073563481637772
 40
0.1610439027721126
 40
0.2147376843335065
 40
0.2684210742225118
 40
0.322093678850852
 40
0.3757719299467714
 40
0.4294634501588547
 40
0.4831551565643549
 40
0.5368336654817459
 40
0.5905061965768497
 40
0.6441892972349604
 40
0.6978830183942586
 40
0.751570835391527
 40
0.8052454438692892
 40
0.8589201513785043
 40
0.9126081075048916
 40
0.9663017936034226
 40
1.0
 40
1.0
 40
1.0
 40
1.0
 10
3.617608403939514
 20
21.58481948626764
 30
0.0
 10
3.607068055741452
 20
21.58553426400774
 30
0.0
 10
3.585987431720335
 20
21.58696381457995
 30
0.0
 10
3.557930353125837
 20
21.59813805508897
 30
0.0
 10
3.536597628502795
 20
21.61468567707703
 30
0.0
 10
3.524396374297591
 20
21.63549783973109
 30
0.0
 10
3.522704540096528
 20
21.65811216366524
 30
0.0
 10
3.531709095446214
 20
21.68003476228457
 30
0.0
 10
3.550393791581796
 20
21.69873603640863
 30
0.0
 10
3.576657466099751
 20
21.71202626728153
 30
0.0
 10
3.607539846944648
 20
21.71831690681974
 30
0.0
 10
3.639553989218477
 20
21.7168508010333
 30
0.0
 10
3.669091520286401
 20
21.70780785841597
 30
0.0
 10
3.692828686990655
 20
21.69227201180033
 30
0.0
 10
3.708089235829767
 20
21.67208312860131
 30
0.0
 10
3.713148176654298
 20
21.64959308864594
 30
0.0
 10
3.707438470091174
 20
21.62737888622356
 30
0.0
 10
3.69160253479704
 20
21.60787325497433
 30
0.0
 10
3.667438195721517
 20
21.59333022242462
 30
0.0
 10
3.64130610749105
 20
21.58584823843398
 30
0.0
 10
3.624203246232266
 20
21.58510577807142
 30
0.0
 10
3.617608403939514
 20
21.58481948626764
 30
0.0
  0
LINE
  5
9C
330
1F
100
AcDbEntity
  8
0
  6
Continuous
 62
     7
370
    30
100
AcDbLine
 10
0.9926084039
 20
20.4970544044
 30
0.0
 11
0.9926084039
 21
28.3720543726
 31
0.0
  0
SPLINE
  5
9D
330
1F
100
AcDbEntity
  8
0
  6
Continuous
 62
     7
370
    30
100
AcDbSpline
210
0.0
220
0.0
230
1.0
 70
     8
 71
     3
 72
    12
 73
     8
 74
     0
 42
0.00000001
 43
0.00000001
 40
0.0
 40
0.0
 40
0.0
 40
0.0
 40
0.2404689777118484
 40
0.4809362753570599
 40
0.7214471713421607
 40
0.9619864513659325
 40
1.0
 40
1.0
 40
1.0
 40
1.0
 10
3.61760840393951
 20
27.26024081509257
 30
0.0
 10
3.62813497483907
 20
27.25952505850583
 30
0.0
 10
3.649188043092983
 20
27.25809355033309
 30
0.0
 10
3.677451295858117
 20
27.24693863114442
 30
0.0
 10
3.698000193896607
 20
27.23032855014217
 30
0.0
 10
3.708884942233089
 20
27.21553251653029
 30
0.0
 10
3.709278039088917
 20
27.20693190639694
 30
0.0
 10
3.70933168423234
 20
27.20575819829582
 30
0.0
  0
SPLINE
  5
9E
330
1F
100
AcDbEntity
  8
0
  6
Continuous
 62
     7
370
    30
100
AcDbSpline
210
0.0
220
0.0
230
1.0
 70
     8
 71
     3
 72
    12
 73
     8
 74
     0
 42
0.00000001
 43
0.00000001
 40
0.0
 40
0.0
 40
0.0
 40
0.0
 40
0.1272732172075538
 40
0.3677953493673548
 40
0.6083778878816793
 40
0.8489865549323614
 40
1.0
 40
1.0
 40
1.0
 40
1.0
 10
3.526501167827391
 20
27.20569695253804
 30
0.0
 10
3.527218624865256
 20
27.20960104632655
 30
0.0
 10
3.529291939013251
 20
27.22088313355917
 30
0.0
 10
3.543938913292502
 20
27.23714539988458
 30
0.0
 10
3.567689615184299
 20
27.25174372392803
 30
0.0
 10
3.593922780741
 20
27.25921042627263
 30
0.0
 10
3.611016783633001
 20
27.25995406173961
 30
0.0
 10
3.61760840393951
 20
27.26024081509257
 30
0.0
  0
SPLINE
  5
9F
330
1F
100
AcDbEntity
  8
0
  6
Continuous
 62
     7
370
    30
100
AcDbSpline
210
0.0
220
0.0
230
1.0
 70
     8
 71
     3
 72
    12
 73
     8
 74
     0
 42
0.00000001
 43
0.00000001
 40
0.0
 40
0.0
 40
0.0
 40
0.0
 40
0.2448467191643248
 40
0.4896917276764121
 40
0.7345811282368242
 40
0.9794994295677982
 40
1.0
 40
1.0
 40
1.0
 40
1.0
 10
3.617608403939506
 20
21.60886799365399
 30
0.0
 10
3.607083724759368
 20
21.6095839795452
 30
0.0
 10
3.586034439931089
 20
21.6110159463253
 30
0.0
 10
3.557742809910851
 20
21.6221674257694
 30
0.0
 10
3.537301768394089
 20
21.63879058058312
 30
0.0
 10
3.526511974632605
 20
21.65304301678492
 30
0.0
 10
3.526044638365038
 20
21.66107952068546
 30
0.0
 10
3.526008541986492
 20
21.66170024864331
 30
0.0
  0
SPLINE
  5
A0
330
1F
100
AcDbEntity
  8
0
  6
Continuous
 62
     7
370
    30
100
AcDbSpline
210
0.0
220
0.0
230
1.0
 70
     8
 71
     3
 72
    12
 73
     8
 74
     0
 42
0.00000001
 43
0.00000001
 40
0.0
 40
0.0
 40
0.0
 40
0.0
 40
0.1179513446593388
 40
0.3610425702688002
 40
0.6041948474522721
 40
0.8473735322593406
 40
1.0
 40
1.0
 40
1.0
 40
1.0
 10
3.708469481342893
 20
21.66245372424952
 30
0.0
 10
3.70779839087697
 20
21.65887664188881
 30
0.0
 10
3.705744219918598
 20
21.64792738977726
 30
0.0
 10
3.6912525969658
 20
21.63196882059155
 30
0.0
 10
3.667534044762426
 20
21.61736361900727
 30
0.0
 10
3.641293033938874
 20
21.60989859494154
 30
0.0
 10
3.624199747842412
 20
21.60915480613589
 30
0.0
 10
3.61760840393951
 20
21.60886799365399
 30
0.0
  0
LINE
  5
A1
330
1F
100
AcDbEntity
  8
0
  6
Continuous
 62
     7
370
    30
100
AcDbLine
 10
4.1486084039
 20
9.6230544361
 30
0.0
 11
4.1486084039
 21
17.4980544044
 31
0.0
  0
SPLINE
  5
A2
330
1F
100
AcDbEntity
  8
0
  6
Continuous
 62
     7
370
    30
100
AcDbSpline
210
0.0
220
0.0
230
1.0
 70
     8
 71
     3
 72
    11
 73
     7
 74
     0
 42
0.00000001
 43
0.00000001
 40
0.0
 40
0.0
 40
0.0
 40
0.0
 40
0.1329042380580638
 40
0.431246368267126
 40
0.729588497696648
 40
1.0
 40
1.0
 40
1.0
 40
1.0
 10
4.148608403939494
 20
9.6230544361193
 30
0.0
 10
4.14888945085908
 20
9.616815432753924
 30
0.0
 10
4.149801389147537
 20
9.596571175819472
 30
0.0
 10
4.161233901158868
 20
9.563606228791008
 30
0.0
 10
4.185935074045404
 20
9.529901074665128
 30
0.0
 10
4.209435314345788
 20
9.516757742841085
 30
0.0
 10
4.220608403939532
 20
9.510508801462052
 30
0.0
  0
SPLINE
  5
A3
330
1F
100
AcDbEntity
  8
0
  6
Continuous
 62
     7
370
    30
100
AcDbSpline
210
0.0
220
0.0
230
1.0
 70
     8
 71
     3
 72
    12
 73
     8
 74
     0
 42
0.00000001
 43
0.00000001
 40
0.0
 40
0.0
 40
0.0
 40
0.0
 40
0.0825572666248555
 40
0.3815763867985553
 40
0.6805955088848162
 40
0.9796146332279558
 40
1.0
 40
1.0
 40
1.0
 40
1.0
 10
4.220608403939532
 20
9.511412524897985
 30
0.0
 10
4.216947171910201
 20
9.512687266957492
 30
0.0
 10
4.200025103798012
 20
9.518579073809315
 30
0.0
 10
4.176235782489417
 20
9.541851830489708
 30
0.0
 10
4.15434068267183
 20
9.577939950873528
 30
0.0
 10
4.148727277816977
 20
9.60716086743532
 30
0.0
 10
4.148615535663812
 20
9.622100916703053
 30
0.0
 10
4.148608403939494
 20
9.6230544361193
 30
0.0
  0
SPLINE
  5
A4
330
1F
100
AcDbEntity
  8
0
  6
Continuous
 62
     7
370
    30
100
AcDbSpline
210
0.0
220
0.0
230
1.0
 70
    11
 71
     3
 72
    26
 73
    22
 74
     0
 42
0.00000001
 43
0.00000001
 40
0.0
 40
0.0
 40
0.0
 40
0.0
 40
0.0541190522105101
 40
0.1082344552911002
 40
0.162394059500593
 40
0.2162394383015168
 40
0.2695385183993576
 40
0.3225069431105074
 40
0.3756482021034701
 40
0.4293068774393196
 40
0.4833972584350789
 40
0.537545794177148
 40
0.5914604802152421
 40
0.6451186125020106
 40
0.6986497504985147
 40
0.7521569463188229
 40
0.8056691515349111
 40
0.8591812284706745
 40
0.9126880890731854
 40
0.9662194649003
 40
1.0
 40
1.0
 40
1.0
 40
1.0
 10
3.836608403939517
 20
13.93555440437327
 30
0.0
 10
3.834158964827256
 20
13.96031209493021
 30
0.0
 10
3.829260251763081
 20
14.00982580668689
 30
0.0
 10
3.791158750611761
 20
14.07558808857389
 30
0.0
 10
3.735086323047445
 20
14.12543567243941
 30
0.0
 10
3.665304169223502
 20
14.15359009016801
 30
0.0
 10
3.590707946353902
 20
14.1570558374882
 30
0.0
 10
3.5194941983684
 20
14.13592058122847
 30
0.0
 10
3.459169892387425
 20
14.09266285984821
 30
0.0
 10
3.416182995003854
 20
14.03169089866829
 30
0.0
 10
3.39565506589126
 20
13.9594730699702
 30
0.0
 10
3.400332463167687
 20
13.88428622759979
 30
0.0
 10
3.429748932599715
 20
13.81499074659465
 30
0.0
 10
3.480373708650011
 20
13.75953359646355
 30
0.0
 10
3.546374200715718
 20
13.72403925599208
 30
0.0
 10
3.620353250556668
 20
13.71238477123006
 30
0.0
 10
3.693988445688189
 20
13.72584889554863
 30
0.0
 10
3.759109618024687
 20
13.76291720527371
 30
0.0
 10
3.807920670259132
 20
13.81934113035701
 30
0.0
 10
3.83313404345604
 20
13.88029321980024
 30
0.0
 10
3.835639179515435
 20
13.92013847673802
 30
0.0
 10
3.836608403939517
 20
13.93555440437327
 30
0.0
  0
LINE
  5
A5
330
1F
100
AcDbEntity
  8
0
  6
Continuous
 62
     7
370
    30
100
AcDbLine
 10
4.1486084039
 20
9.6230544361
 30
0.0
 11
0.9926084039
 21
9.6230544361
 31
0.0
  0
SPLINE
  5
A6
330
1F
100
AcDbEntity
  8
0
  6
Continuous
 62
     7
370
    30
100
AcDbSpline
210
0.0
220
0.0
230
1.0
 70
    11
 71
     3
 72
    26
 73
    22
 74
     0
 42
0.00000001
 43
0.00000001
 40
0.0
 40
0.0
 40
0.0
 40
0.0
 40
0.053754097957892
 40
0.1075153386049231
 40
0.1611185227842791
 40
0.2146346378481463
 40
0.268142348215141
 40
0.3216550706886276
 40
0.3751649058249726
 40
0.4286727115075109
 40
0.4822286352559832
 40
0.5359559346033533
 40
0.5899574605375235
 40
0.6441301169415198
 40
0.6981195106266914
 40
0.7515958948232833
 40
0.8046220227606299
 40
0.8576519188260531
 40
0.9111288129505367
 40
0.9651120908085034
 40
1.0
 40
1.0
 40
1.0
 40
1.0
 10
3.836608403939517
 20
13.18555440437327
 30
0.0
 10
3.834191478554937
 20
13.21017358571441
 30
0.0
 10
3.829357306631724
 20
13.25941521972232
 30
0.0
 10
3.791557100840299
 20
13.32504969908903
 30
0.0
 10
3.735883258914035
 20
13.37488141087764
 30
0.0
 10
3.666474777239649
 20
13.40332142359646
 30
0.0
 10
3.591722996245683
 20
13.40723445138597
 30
0.0
 10
3.519857784825488
 20
13.38619600964659
 30
0.0
 10
3.459023152510351
 20
13.34259034016577
 30
0.0
 10
3.416048137088415
 20
13.28136608851814
 30
0.0
 10
3.395713948218996
 20
13.20941205287672
 30
0.0
 10
3.400285549182571
 20
13.13470357483312
 30
0.0
 10
3.429400395306594
 20
13.06552086441767
 30
0.0
 10
3.479982394103807
 20
13.00977810310791
 30
0.0
 10
3.546206644932467
 20
12.97406617826983
 30
0.0
 10
3.620169268166034
 20
12.96241924915052
 30
0.0
 10
3.693339426682197
 20
12.97570404633446
 30
0.0
 10
3.75805046402693
 20
13.01214482928608
 30
0.0
 10
3.807036932430183
 20
13.0679256544767
 30
0.0
 10
3.832944326885625
 20
13.12910879553963
 30
0.0
 10
3.835575494105733
 20
13.1696422869204
 30
0.0
 10
3.836608403939517
 20
13.18555440437327
 30
0.0
  0
SPLINE
  5
A7
330
1F
100
AcDbEntity
  8
0
  6
Continuous
 62
     7
370
    30
100
AcDbSpline
210
0.0
220
0.0
230
1.0
 70
    11
 71
     3
 72
    26
 73
    22
 74
     0
 42
0.00000001
 43
0.00000001
 40
0.0
 40
0.0
 40
0.0
 40
0.0
 40
0.0536783583723539
 40
0.1073563481637771
 40
0.1610439027721092
 40
0.2147376843335058
 40
0.2684210742225093
 40
0.3220936788508503
 40
0.3757719299467676
 40
0.4294634501588546
 40
0.483155156564355
 40
0.5368336654817424
 40
0.5905061965768462
 40
0.644189297234959
 40
0.6978830183942578
 40
0.7515708353915256
 40
0.8052454438692885
 40
0.8589201513785032
 40
0.9126081075048911
 40
0.9663017936034188
 40
1.0
 40
1.0
 40
1.0
 40
1.0
 10
3.61760840393951
 20
16.41028932247895
 30
0.0
 10
3.628148752137567
 20
16.40957454473884
 30
0.0
 10
3.649229376158697
 20
16.40814499416663
 30
0.0
 10
3.677286454753178
 20
16.39697075365761
 30
0.0
 10
3.698619179376233
 20
16.38042313166955
 30
0.0
 10
3.710820433581433
 20
16.35961096901548
 30
0.0
 10
3.7125122677825
 20
16.33699664508134
 30
0.0
 10
3.70350771243281
 20
16.315074046462
 30
0.0
 10
3.684823016297219
 20
16.29637277233795
 30
0.0
 10
3.658559341779286
 20
16.28308254146505
 30
0.0
 10
3.627676960934371
 20
16.27679190192685
 30
0.0
 10
3.595662818660547
 20
16.27825800771328
 30
0.0
 10
3.566125287592628
 20
16.28730095033061
 30
0.0
 10
3.542388120888377
 20
16.30283679694625
 30
0.0
 10
3.527127572049256
 20
16.32302568014527
 30
0.0
 10
3.522068631224726
 20
16.34551572010064
 30
0.0
 10
3.527778337787845
 20
16.36772992252302
 30
0.0
 10
3.543614273081984
 20
16.38723555377225
 30
0.0
 10
3.567778612157507
 20
16.40177858632196
 30
0.0
 10
3.593910700387978
 20
16.4092605703126
 30
0.0
 10
3.611013561646758
 20
16.41000303067516
 30
0.0
 10
3.617608403939514
 20
16.41028932247894
 30
0.0
  0
SPLINE
  5
A8
330
1F
100
AcDbEntity
  8
0
  6
Continuous
 62
     7
370
    30
100
AcDbSpline
210
0.0
220
0.0
230
1.0
 70
    11
 71
     3
 72
    26
 73
    22
 74
     0
 42
0.00000001
 43
0.00000001
 40
0.0
 40
0.0
 40
0.0
 40
0.0
 40
0.0536783583723575
 40
0.1073563481637775
 40
0.1610439027721101
 40
0.2147376843335062
 40
0.268421074222511
 40
0.3220936788508514
 40
0.3757719299467714
 40
0.4294634501588573
 40
0.4831551565643544
 40
0.5368336654817455
 40
0.5905061965768464
 40
0.6441892972349605
 40
0.6978830183942578
 40
0.7515708353915257
 40
0.8052454438692905
 40
0.8589201513785047
 40
0.912608107504891
 40
0.966301793603419
 40
1.0
 40
1.0
 40
1.0
 40
1.0
 10
3.617608403939506
 20
10.84340200774011
 30
0.0
 10
3.628148752137571
 20
10.84265132659156
 30
0.0
 10
3.649229376158693
 20
10.84114996944897
 30
0.0
 10
3.677286454753191
 20
10.82947671173562
 30
0.0
 10
3.69861917937622
 20
10.81237489393078
 30
0.0
 10
3.710820433581433
 20
10.79116470752866
 30
0.0
 10
3.712512267782496
 20
10.76849143006937
 30
0.0
 10
3.703507712432815
 20
10.74687238175382
 30
0.0
 10
3.684823016297214
 20
10.72870479671656
 30
0.0
 10
3.658559341779286
 20
10.71594455294351
 30
0.0
 10
3.627676960934362
 20
10.70994787568181
 30
0.0
 10
3.595662818660543
 20
10.71134301262163
 30
0.0
 10
3.566125287592628
 20
10.71998131028253
 30
0.0
 10
3.54238812088836
 20
10.73495611595616
 30
0.0
 10
3.527127572049252
 20
10.75467330187119
 30
0.0
 10
3.522068631224721
 20
10.77698788808413
 30
0.0
 10
3.52777833778785
 20
10.79939922855353
 30
0.0
 10
3.543614273081988
 20
10.81938979755171
 30
0.0
 10
3.567778612157503
 20
10.8344871136248
 30
0.0
 10
3.593910700387974
 20
10.84232270223218
 30
0.0
 10
3.611013561646758
 20
10.84310164742904
 30
0.0
 10
3.61760840393951
 20
10.84340200774011
 30
0.0
  0
LINE
  5
A9
330
1F
100
AcDbEntity
  8
0
  6
Continuous
 62
     7
370
    30
100
AcDbLine
 10
0.9926084039
 20
9.6230544361
 30
0.0
 11
0.9926084039
 21
17.4980544044
 31
0.0
  0
SPLINE
  5
AA
330
1F
100
AcDbEntity
  8
0
  6
Continuous
 62
     7
370
    30
100
AcDbSpline
210
0.0
220
0.0
230
1.0
 70
     8
 71
     3
 72
    12
 73
     8
 74
     0
 42
0.00000001
 43
0.00000001
 40
0.0
 40
0.0
 40
0.0
 40
0.0
 40
0.2448467191643409
 40
0.4896917276764233
 40
0.734581128236837
 40
0.9794994295678132
 40
0.9999999999999999
 40
0.9999999999999999
 40
0.9999999999999999
 40
0.9999999999999999
 10
3.61760840393951
 20
16.38624081509259
 30
0.0
 10
3.628133083119647
 20
16.38552482920138
 30
0.0
 10
3.649182367947926
 20
16.38409286242128
 30
0.0
 10
3.677473997968173
 20
16.37294138297717
 30
0.0
 10
3.697915039484931
 20
16.35631822816346
 30
0.0
 10
3.708704833246415
 20
16.34206579196166
 30
0.0
 10
3.709172169513982
 20
16.33402928806112
 30
0.0
 10
3.709208265892532
 20
16.33340856010328
 30
0.0
  0
SPLINE
  5
AB
330
1F
100
AcDbEntity
  8
0
  6
Continuous
 62
     7
370
    30
100
AcDbSpline
210
0.0
220
0.0
230
1.0
 70
     8
 71
     3
 72
    12
 73
     8
 74
     0
 42
0.00000001
 43
0.00000001
 40
0.0
 40
0.0
 40
0.0
 40
0.0
 40
0.1179513446593117
 40
0.3610425702687865
 40
0.6041948474522695
 40
0.8473735322593343
 40
1.0
 40
1.0
 40
1.0
 40
1.0
 10
3.526747326536131
 20
16.33265508449707
 30
0.0
 10
3.52741841700205
 20
16.33623216685777
 30
0.0
 10
3.529472587960426
 20
16.34718141896932
 30
0.0
 10
3.543964210913237
 20
16.36313998815503
 30
0.0
 10
3.567682763116593
 20
16.37774518973931
 30
0.0
 10
3.593923773940141
 20
16.38521021380504
 30
0.0
 10
3.611017060036608
 20
16.38595400261068
 30
0.0
 10
3.617608403939514
 20
16.38624081509258
 30
0.0
  0
SPLINE
  5
AC
330
1F
100
AcDbEntity
  8
0
  6
Continuous
 62
     7
370
    30
100
AcDbSpline
210
0.0
220
0.0
230
1.0
 70
     8
 71
     3
 72
    16
 73
    12
 74
     0
 42
0.00000001
 43
0.00000001
 40
0.0
 40
0.0
 40
0.0
 40
0.0
 40
0.0968542666374108
 40
0.2185254296435923
 40
0.3402271956607899
 40
0.4619293918540276
 40
0.5836011501561419
 40
0.7052591209207728
 40
0.8269414682647614
 40
0.9486483106460482
 40
1.0
 40
1.0
 40
1.0
 40
1.0
 10
3.708928235414273
 20
10.78838170819503
 30
0.0
 10
3.707079759289224
 20
10.78260404225198
 30
0.0
 10
3.702909173382842
 20
10.76956830333851
 30
0.0
 10
3.684626046329214
 20
10.75278314227099
 30
0.0
 10
3.658614546680405
 20
10.73998352959491
 30
0.0
 10
3.627655817396632
 20
10.73399794819852
 30
0.0
 10
3.595695232617923
 20
10.73539454816071
 30
0.0
 10
3.566020080400728
 20
10.74401343379062
 30
0.0
 10
3.542780019768829
 20
10.75905368235113
 30
0.0
 10
3.528964783428187
 20
10.77476444667366
 30
0.0
 10
3.527243624964697
 20
10.78527178726335
 30
0.0
 10
3.526732905303209
 20
10.78838963233281
 30
0.0
  0
ARC
  5
AD
330
1F
100
AcDbEntity
  8
0
  6
Continuous
 62
     7
370
    30
100
AcDbCircle
 10
45.5556084039
 20
18.9975544044
 30
0.0
 40
0.0470000000000015
100
AcDbArc
 50
180.0
 51
283.0269950942
  0
ARC
  5
AE
330
1F
100
AcDbEntity
  8
0
  6
Continuous
 62
     7
370
    30
100
AcDbCircle
 10
45.5556084039
 20
18.9975544044
 30
0.0
 40
0.0470000000000071
100
AcDbArc
 50
31.7332750097
 51
180.0
  0
LWPOLYLINE
  5
AF
330
1F
100
AcDbEntity
  8
0
  6
Continuous
 62
     7
370
    30
100
AcDbPolyline
 90
        3
 70
   128
 43
0.0
 10
45.9021598763
 20
7.5107280836
 10
45.9103987718
 20
7.5177640365
 10
45.9174841189
 20
7.5260710192
  0
CIRCLE
  5
B0
330
1F
100
AcDbEntity
  8
0
  6
Continuous
 62
     7
370
    30
100
AcDbCircle
 10
4.6806084039
 20
18.9975544044
 30
0.0
 40
0.0470000000000006
  0
CIRCLE
  5
B1
330
1F
100
AcDbEntity
  8
0
  6
Continuous
 62
     7
370
    30
100
AcDbCircle
 10
4.6806084039
 20
8.9975544044
 30
0.0
 40
0.0470000000000006
  0
CIRCLE
  5
B2
330
1F
100
AcDbEntity
  8
0
  6
Continuous
 62
     7
370
    30
100
AcDbCircle
 10
4.6806084039
 20
28.9975544044
 30
0.0
 40
0.0470000000000006
  0
LINE
  5
B3
330
1F
100
AcDbEntity
  8
0
  6
Continuous
 62
     7
370
    30
100
AcDbLine
 10
4.2606084039
 20
7.460393254
 30
0.0
 11
4.2206084039
 21
7.460393254
 31
0.0
  0
LINE
  5
B4
330
1F
100
AcDbEntity
  8
0
  6
Continuous
 62
     7
370
    30
100
AcDbLine
 10
4.2206084039
 20
7.525393254
 30
0.0
 11
4.2206084039
 21
7.460393254
 31
0.0
  0
LINE
  5
B5
330
1F
100
AcDbEntity
  8
0
  6
Continuous
 62
     7
370
    30
100
AcDbLine
 10
4.2606084039
 20
7.525393254
 30
0.0
 11
4.2606084039
 21
7.460393254
 31
0.0
  0
LINE
  5
B6
330
1F
100
AcDbEntity
  8
0
  6
Continuous
 62
     7
370
    30
100
AcDbLine
 10
4.2884472536
 20
7.3925544044
 30
0.0
 11
5.2320930476
 21
7.3925544044
 31
0.0
  0
LINE
  5
B7
330
1F
100
AcDbEntity
  8
0
  6
Continuous
 62
     7
370
    30
100
AcDbLine
 10
23.2721237603
 20
7.3925544044
 30
0.0
 11
45.9027695543
 21
7.3925544044
 31
0.0
  0
LINE
  5
B8
330
1F
100
AcDbEntity
  8
0
  6
Continuous
 62
     7
370
    30
100
AcDbLine
 10
45.9027695543
 20
7.4325544044
 30
0.0
 11
45.9027695543
 21
7.3925544044
 31
0.0
  0
LINE
  5
B9
330
1F
100
AcDbEntity
  8
0
  6
Continuous
 62
     7
370
    30
100
AcDbLine
 10
4.2884472536
 20
7.4325544044
 30
0.0
 11
4.2884472536
 21
7.3925544044
 31
0.0
  0
LINE
  5
BA
330
1F
100
AcDbEntity
  8
0
  6
Continuous
 62
     7
370
    30
100
AcDbLine
 10
4.2884472536
 20
7.4325544044
 30
0.0
 11
5.2320930476
 21
7.4325544044
 31
0.0
  0
LINE
  5
BB
330
1F
100
AcDbEntity
  8
0
  6
Continuous
 62
     7
370
    30
100
AcDbLine
 10
23.2721237603
 20
7.4325544044
 30
0.0
 11
45.9027695543
 21
7.4325544044
 31
0.0
  0
LINE
  5
BC
330
1F
100
AcDbEntity
  8
0
  6
Continuous
 62
     7
370
    30
100
AcDbLine
 10
45.9306084039
 20
7.460393254
 30
0.0
 11
45.9706084039
 21
7.460393254
 31
0.0
  0
LINE
  5
BD
330
1F
100
AcDbEntity
  8
0
  6
Continuous
 62
     7
370
    30
100
AcDbLine
 10
45.9706084039
 20
7.460393254
 30
0.0
 11
45.9706084039
 21
7.525393254
 31
0.0
  0
LINE
  5
BE
330
1F
100
AcDbEntity
  8
0
  6
Continuous
 62
     7
370
    30
100
AcDbLine
 10
45.9306084039
 20
7.460393254
 30
0.0
 11
45.9306084039
 21
7.525393254
 31
0.0
  0
SPLINE
  5
BF
330
1F
100
AcDbEntity
  8
0
  6
Continuous
 62
     7
370
    30
100
AcDbSpline
210
0.0
220
0.0
230
1.0
 70
     8
 71
     3
 72
    11
 73
     7
 74
     0
 42
0.00000001
 43
0.00000001
 40
0.0
 40
0.0
 40
0.0
 40
0.0
 40
0.2623463654001905
 40
0.5246927308003639
 40
0.7870390962006119
 40
1.0
 40
1.0
 40
1.0
 40
1.0
 10
4.260608403939589
 20
7.460393254026285
 30
0.0
 10
4.261058571436219
 20
7.460573349888535
 30
0.0
 10
4.26195890642948
 20
7.460933541613032
 30
0.0
 10
4.268908078128
 20
7.461473829199781
 30
0.0
 10
4.278160537558431
 20
7.461980214592849
 30
0.0
 10
4.285264383267152
 20
7.462306504123676
 30
0.0
 10
4.288447253592543
 20
7.46245269779225
 30
0.0
  0
SPLINE
  5
C0
330
1F
100
AcDbEntity
  8
0
  6
Continuous
 62
     7
370
    30
100
AcDbSpline
210
0.0
220
0.0
230
1.0
 70
     8
 71
     3
 72
    11
 73
     7
 74
     0
 42
0.00000001
 43
0.00000001
 40
0.0
 40
0.0
 40
0.0
 40
0.0
 40
0.2129609038014032
 40
0.4753072692009614
 40
0.7376536346004722
 40
1.0
 40
1.0
 40
1.0
 40
1.0
 10
45.90276955428651
 20
7.462452697792401
 30
0.0
 10
45.90595242461195
 20
7.462306504123825
 30
0.0
 10
45.9130562703207
 20
7.461980214592998
 30
0.0
 10
45.92230872975118
 20
7.461473829199923
 30
0.0
 10
45.92925790144969
 20
7.460933541613175
 30
0.0
 10
45.93015823644295
 20
7.460573349888679
 30
0.0
 10
45.93060840393959
 20
7.460393254026427
 30
0.0
  0
SPLINE
  5
C1
330
1F
100
AcDbEntity
  8
0
  6
Continuous
 62
     7
370
    30
100
AcDbSpline
210
0.0
220
0.0
230
1.0
 70
     8
 71
     3
 72
    11
 73
     7
 74
     0
 42
0.00000001
 43
0.00000001
 40
0.0
 40
0.0
 40
0.0
 40
0.0
 40
0.2805459077521807
 40
0.561091815504403
 40
0.841637723256594
 40
1.0
 40
1.0
 40
1.0
 40
1.0
 10
45.90276955428657
 20
7.432554404373417
 30
0.0
 10
45.90258945842433
 20
7.433003236011023
 30
0.0
 10
45.90222926669983
 20
7.433900899286238
 30
0.0
 10
45.90168897911308
 20
7.440870108870085
 30
0.0
 10
45.90122712705425
 20
7.44924378421261
 30
0.0
 10
45.90094537085768
 20
7.455350898900966
 30
0.0
 10
45.90084371052334
 20
7.457554404373283
 30
0.0
  0
SPLINE
  5
C2
330
1F
100
AcDbEntity
  8
0
  6
Continuous
 62
     7
370
    30
100
AcDbSpline
210
0.0
220
0.0
230
1.0
 70
     8
 71
     3
 72
    11
 73
     7
 74
     0
 42
0.00000001
 43
0.00000001
 40
0.0
 40
0.0
 40
0.0
 40
0.0
 40
0.1583622767463728
 40
0.4389081844975783
 40
0.7194540922487888
 40
1.0
 40
1.0
 40
1.0
 40
1.0
 10
4.29037309735584
 20
7.457554404373283
 30
0.0
 10
4.290271437021508
 20
7.455350898900916
 30
0.0
 10
4.289989680824927
 20
7.449243784212511
 30
0.0
 10
4.289527828766073
 20
7.440870108869936
 30
0.0
 10
4.288987541179347
 20
7.433900899286102
 30
0.0
 10
4.288627349454852
 20
7.433003236010885
 30
0.0
 10
4.288447253592595
 20
7.432554404373272
 30
0.0
  0
ARC
  5
C3
330
1F
100
AcDbEntity
  8
0
  6
Continuous
 62
     7
370
    30
100
AcDbCircle
 10
45.5016084039
 20
18.9550544044
 30
0.0
 40
0.0940000000000042
100
AcDbArc
 50
20.2272604746
 51
66.7437942221
  0
LINE
  5
C4
330
1F
100
AcDbEntity
  8
0
  6
Continuous
 62
     7
370
    30
100
AcDbLine
 10
4.2906084039
 20
30.5125544044
 30
0.0
 11
4.2906084039
 21
7.5275544044
 31
0.0
  0
LINE
  5
C5
330
1F
100
AcDbEntity
  8
0
  6
Continuous
 62
     7
370
    30
100
AcDbLine
 10
45.9006084039
 20
7.5275544044
 30
0.0
 11
45.9006084039
 21
30.5125544044
 31
0.0
  0
CIRCLE
  5
C6
330
1F
100
AcDbEntity
  8
0
  6
Continuous
 62
     7
370
    30
100
AcDbCircle
 10
44.8456084039
 20
7.9885544044
 30
0.0
 40
0.0940000000000012
  0
CIRCLE
  5
C7
330
1F
100
AcDbEntity
  8
0
  6
Continuous
 62
     7
370
    30
100
AcDbCircle
 10
31.8456084039
 20
7.9885544044
 30
0.0
 40
0.0940000000000012
  0
CIRCLE
  5
C8
330
1F
100
AcDbEntity
  8
0
  6
Continuous
 62
     7
370
    30
100
AcDbCircle
 10
5.3456084039
 20
7.9885544044
 30
0.0
 40
0.0939999999999976
  0
CIRCLE
  5
C9
330
1F
100
AcDbEntity
  8
0
  6
Continuous
 62
     7
370
    30
100
AcDbCircle
 10
5.3456084039
 20
30.0515544044
 30
0.0
 40
0.0940000000000012
  0
CIRCLE
  5
CA
330
1F
100
AcDbEntity
  8
0
  6
Continuous
 62
     7
370
    30
100
AcDbCircle
 10
18.3456084039
 20
30.0515544044
 30
0.0
 40
0.0940000000000012
  0
CIRCLE
  5
CB
330
1F
100
AcDbEntity
  8
0
  6
Continuous
 62
     7
370
    30
100
AcDbCircle
 10
31.8456084039
 20
30.0515544044
 30
0.0
 40
0.0940000000000012
  0
CIRCLE
  5
CC
330
1F
100
AcDbEntity
  8
0
  6
Continuous
 62
     7
370
    30
100
AcDbCircle
 10
45.5016084039
 20
9.0200544044
 30
0.0
 40
0.0939999999999959
  0
CIRCLE
  5
CD
330
1F
100
AcDbEntity
  8
0
  6
Continuous
 62
     7
370
    30
100
AcDbCircle
 10
45.5016084039
 20
29.0200544044
 30
0.0
 40
0.0939999999999941
  0
CIRCLE
  5
CE
330
1F
100
AcDbEntity
  8
0
  6
Continuous
 62
     7
370
    30
100
AcDbCircle
 10
4.6896084039
 20
29.0200544044
 30
0.0
 40
0.0940000000000012
  0
CIRCLE
  5
CF
330
1F
100
AcDbEntity
  8
0
  6
Continuous
 62
     7
370
    30
100
AcDbCircle
 10
4.6896084039
 20
9.0200544044
 30
0.0
 40
0.0939999999999976
  0
CIRCLE
  5
D0
330
1F
100
AcDbEntity
  8
0
  6
Continuous
 62
     7
370
    30
100
AcDbCircle
 10
4.6896084039
 20
19.0200544044
 30
0.0
 40
0.0940000000000047
  0
CIRCLE
  5
D1
330
1F
100
AcDbEntity
  8
0
  6
Continuous
 62
     7
370
    30
100
AcDbCircle
 10
45.5016084039
 20
19.0200544044
 30
0.0
 40
0.0940000000000012
  0
CIRCLE
  5
D2
330
1F
100
AcDbEntity
  8
0
  6
Continuous
 62
     7
370
    30
100
AcDbCircle
 10
44.8456084039
 20
30.0515544044
 30
0.0
 40
0.0940000000000012
  0
CIRCLE
  5
D3
330
1F
100
AcDbEntity
  8
0
  6
Continuous
 62
     7
370
    30
100
AcDbCircle
 10
18.3456084039
 20
7.9885544044
 30
0.0
 40
0.0940000000000021
  0
SPLINE
  5
D4
330
1F
100
AcDbEntity
  8
0
  6
Continuous
 62
     7
370
    30
100
AcDbSpline
210
0.0
220
0.0
230
1.0
 70
     8
 71
     3
 72
    11
 73
     7
 74
     0
 42
0.00000001
 43
0.00000001
 40
0.0
 40
0.0
 40
0.0
 40
0.0
 40
0.2499999999999992
 40
0.500000000000007
 40
0.7499999999999934
 40
1.0
 40
1.0
 40
1.0
 40
1.0
 10
4.288447253592543
 20
7.457554404373283
 30
0.0
 10
4.288627349454786
 20
7.458606614468396
 30
0.0
 10
4.288987541179286
 20
7.460711034658621
 30
0.0
 10
4.289527828766039
 20
7.476898479577189
 30
0.0
 10
4.290068116352781
 20
7.500036625173972
 30
0.0
 10
4.290428308077278
 20
7.518381811306845
 30
0.0
 10
4.29060840393953
 20
7.527554404373281
 30
0.0
  0
LINE
  5
D5
330
1F
100
AcDbEntity
  8
0
  6
Continuous
 62
     7
370
    30
100
AcDbLine
 10
4.2884472536
 20
7.4575544044
 30
0.0
 11
4.2884472536
 21
7.4975544044
 31
0.0
  0
SPLINE
  5
D6
330
1F
100
AcDbEntity
  8
0
  6
Continuous
 62
     7
370
    30
100
AcDbSpline
210
0.0
220
0.0
230
1.0
 70
     8
 71
     3
 72
    11
 73
     7
 74
     0
 42
0.00000001
 43
0.00000001
 40
0.0
 40
0.0
 40
0.0
 40
0.0
 40
0.2500000000000062
 40
0.5000000000000057
 40
0.7500000000000009
 40
1.0
 40
1.0
 40
1.0
 40
1.0
 10
45.90060840393951
 20
30.51255440437328
 30
0.0
 10
45.90978099700595
 20
30.51273450023553
 30
0.0
 10
45.92812618313883
 20
30.51309469196003
 30
0.0
 10
45.95126432873561
 20
30.51363497954678
 30
0.0
 10
45.96745177365419
 20
30.51417526713352
 30
0.0
 10
45.9695561938444
 20
30.51453545885802
 30
0.0
 10
45.97060840393952
 20
30.51471555472027
 30
0.0
  0
LINE
  5
D7
330
1F
100
AcDbEntity
  8
0
  6
Continuous
 62
     7
370
    30
100
AcDbLine
 10
45.9706084039
 20
7.525393254
 30
0.0
 11
45.9706084039
 21
30.5147155547
 31
0.0
  0
SPLINE
  5
D8
330
1F
100
AcDbEntity
  8
0
  6
Continuous
 62
     7
370
    30
100
AcDbSpline
210
0.0
220
0.0
230
1.0
 70
     8
 71
     3
 72
    11
 73
     7
 74
     0
 42
0.00000001
 43
0.00000001
 40
0.0
 40
0.0
 40
0.0
 40
0.0
 40
0.249999999999998
 40
0.4999999999999977
 40
0.74999999999998
 40
1.0
 40
1.0
 40
1.0
 40
1.0
 10
45.97060840393952
 20
7.525393254026294
 30
0.0
 10
45.9695561938444
 20
7.525573349888544
 30
0.0
 10
45.96745177365419
 20
7.525933541613042
 30
0.0
 10
45.95126432873562
 20
7.52647382919979
 30
0.0
 10
45.92812618313884
 20
7.527014116786531
 30
0.0
 10
45.90978099700596
 20
7.527374308511035
 30
0.0
 10
45.90060840393953
 20
7.527554404373281
 30
0.0
  0
SPLINE
  5
D9
330
1F
100
AcDbEntity
  8
0
  6
Continuous
 62
     7
370
    30
100
AcDbSpline
210
0.0
220
0.0
230
1.0
 70
     8
 71
     3
 72
    11
 73
     7
 74
     0
 42
0.00000001
 43
0.00000001
 40
0.0
 40
0.0
 40
0.0
 40
0.0
 40
0.2500000000000179
 40
0.4999999999999983
 40
0.7500000000000022
 40
1.0
 40
1.0
 40
1.0
 40
1.0
 10
4.290608403939534
 20
7.527554404373285
 30
0.0
 10
4.281435810873098
 20
7.527374308511034
 30
0.0
 10
4.263090624740225
 20
7.527014116786537
 30
0.0
 10
4.239952479143438
 20
7.52647382919979
 30
0.0
 10
4.223765034224865
 20
7.525933541613037
 30
0.0
 10
4.221660614034644
 20
7.525573349888542
 30
0.0
 10
4.220608403939532
 20
7.525393254026294
 30
0.0
  0
LINE
  5
DA
330
1F
100
AcDbEntity
  8
0
  6
Continuous
 62
     7
370
    30
100
AcDbLine
 10
4.2206084039
 20
30.5147155547
 30
0.0
 11
4.2206084039
 21
7.525393254
 31
0.0
  0
SPLINE
  5
DB
330
1F
100
AcDbEntity
  8
0
  6
Continuous
 62
     7
370
    30
100
AcDbSpline
210
0.0
220
0.0
230
1.0
 70
     8
 71
     3
 72
    11
 73
     7
 74
     0
 42
0.00000001
 43
0.00000001
 40
0.0
 40
0.0
 40
0.0
 40
0.0
 40
0.2499999999999976
 40
0.5000000000000019
 40
0.7499999999999821
 40
1.0
 40
1.0
 40
1.0
 40
1.0
 10
4.220608403939532
 20
30.51471555472027
 30
0.0
 10
4.22166061403464
 20
30.51453545885802
 30
0.0
 10
4.223765034224869
 20
30.51417526713353
 30
0.0
 10
4.239952479143442
 20
30.51363497954678
 30
0.0
 10
4.263090624740216
 20
30.51309469196003
 30
0.0
 10
4.281435810873098
 20
30.51273450023553
 30
0.0
 10
4.290608403939534
 20
30.51255440437329
 30
0.0
  0
LINE
  5
DC
330
1F
100
AcDbEntity
  8
0
  6
Continuous
 62
     7
370
    30
100
AcDbLine
 10
45.9706084039
 20
30.5147155547
 30
0.0
 11
45.9306084039
 21
30.5147155547
 31
0.0
  0
SPLINE
  5
DD
330
1F
100
AcDbEntity
  8
0
  6
Continuous
 62
     7
370
    30
100
AcDbSpline
210
0.0
220
0.0
230
1.0
 70
     8
 71
     3
 72
    11
 73
     7
 74
     0
 42
0.00000001
 43
0.00000001
 40
0.0
 40
0.0
 40
0.0
 40
0.0
 40
0.250000000000006
 40
0.4999999999999934
 40
0.7500000000000014
 40
1.0
 40
1.0
 40
1.0
 40
1.0
 10
45.90060840393953
 20
7.527554404373281
 30
0.0
 10
45.90078849980178
 20
7.518381811306845
 30
0.0
 10
45.90114869152628
 20
7.500036625173968
 30
0.0
 10
45.90168897911303
 20
7.476898479577189
 30
0.0
 10
45.90222926669978
 20
7.460711034658618
 30
0.0
 10
45.90258945842427
 20
7.458606614468396
 30
0.0
 10
45.90276955428651
 20
7.457554404373283
 30
0.0
  0
LINE
  5
DE
330
1F
100
AcDbEntity
  8
0
  6
Continuous
 62
     7
370
    30
100
AcDbLine
 10
4.2884472536
 20
7.4575544044
 30
0.0
 11
5.2320930476
 21
7.4575544044
 31
0.0
  0
LINE
  5
DF
330
1F
100
AcDbEntity
  8
0
  6
Continuous
 62
     7
370
    30
100
AcDbLine
 10
23.2721237603
 20
7.4575544044
 30
0.0
 11
45.9027695543
 21
7.4575544044
 31
0.0
  0
LINE
  5
E0
330
1F
100
AcDbEntity
  8
0
  6
Continuous
 62
     7
370
    30
100
AcDbLine
 10
4.2206084039
 20
30.5147155547
 30
0.0
 11
4.2606084039
 21
30.5147155547
 31
0.0
  0
SPLINE
  5
E1
330
1F
100
AcDbEntity
  8
0
  6
Continuous
 62
     7
370
    30
100
AcDbSpline
210
0.0
220
0.0
230
1.0
 70
     8
 71
     3
 72
    11
 73
     7
 74
     0
 42
0.00000001
 43
0.00000001
 40
0.0
 40
0.0
 40
0.0
 40
0.0
 40
0.2500000000000066
 40
0.4999999999999928
 40
0.7499999999999999
 40
1.0
 40
1.0
 40
1.0
 40
1.0
 10
4.29060840393953
 20
30.51255440437329
 30
0.0
 10
4.290428308077281
 20
30.52172699743972
 30
0.0
 10
4.290068116352773
 20
30.5400721835726
 30
0.0
 10
4.289527828766039
 20
30.56321032916938
 30
0.0
 10
4.288987541179295
 20
30.57939777408795
 30
0.0
 10
4.28862734945479
 20
30.58150219427817
 30
0.0
 10
4.288447253592547
 20
30.58255440437328
 30
0.0
  0
LINE
  5
E2
330
1F
100
AcDbEntity
  8
0
  6
Continuous
 62
     7
370
    30
100
AcDbLine
 10
4.2884472536
 20
30.5825544044
 30
0.0
 11
4.2884472536
 21
30.5425544044
 31
0.0
  0
LINE
  5
E3
330
1F
100
AcDbEntity
  8
0
  6
Continuous
 62
     7
370
    30
100
AcDbLine
 10
45.9027695543
 20
7.4575544044
 30
0.0
 11
45.9027695543
 21
7.4975544044
 31
0.0
  0
SPLINE
  5
E4
330
1F
100
AcDbEntity
  8
0
  6
Continuous
 62
     7
370
    30
100
AcDbSpline
210
0.0
220
0.0
230
1.0
 70
     8
 71
     3
 72
    11
 73
     7
 74
     0
 42
0.00000001
 43
0.00000001
 40
0.0
 40
0.0
 40
0.0
 40
0.0
 40
0.2500000000000007
 40
0.5000000000000075
 40
0.7499999999999944
 40
0.9999999999999999
 40
0.9999999999999999
 40
0.9999999999999999
 40
0.9999999999999999
 10
45.90276955428651
 20
30.58255440437328
 30
0.0
 10
45.90258945842425
 20
30.58150219427817
 30
0.0
 10
45.90222926669976
 20
30.57939777408795
 30
0.0
 10
45.90168897911301
 20
30.56321032916938
 30
0.0
 10
45.90114869152627
 20
30.5400721835726
 30
0.0
 10
45.90078849980178
 20
30.52172699743972
 30
0.0
 10
45.90060840393953
 20
30.51255440437329
 30
0.0
  0
LINE
  5
E5
330
1F
100
AcDbEntity
  8
0
  6
Continuous
 62
     7
370
    30
100
AcDbLine
 10
45.9027695543
 20
30.5825544044
 30
0.0
 11
45.9027695543
 21
30.5425544044
 31
0.0
  0
LINE
  5
E6
330
1F
100
AcDbEntity
  8
0
  6
Continuous
 62
     7
370
    30
100
AcDbLine
 10
4.2884472536
 20
30.5825544044
 30
0.0
 11
5.2320930476
 21
30.5825544044
 31
0.0
  0
LINE
  5
E7
330
1F
100
AcDbEntity
  8
0
  6
Continuous
 62
     7
370
    30
100
AcDbLine
 10
23.2721237603
 20
30.5825544044
 30
0.0
 11
45.9027695543
 21
30.5825544044
 31
0.0
  0
LINE
  5
E8
330
1F
100
AcDbEntity
  8
0
  6
Continuous
 62
     7
370
    30
100
AcDbLine
 10
4.2206084039
 20
7.525393254
 30
0.0
 11
4.2606084039
 21
7.525393254
 31
0.0
  0
LINE
  5
E9
330
1F
100
AcDbEntity
  8
0
  6
Continuous
 62
     7
370
    30
100
AcDbLine
 10
45.9706084039
 20
7.525393254
 30
0.0
 11
45.9306084039
 21
7.525393254
 31
0.0
  0
LINE
  5
EA
330
1F
100
AcDbEntity
  8
0
  6
Continuous
 62
     7
370
    30
100
AcDbLine
 10
45.9986084039
 20
15.4975544044
 30
0.0
 11
45.9986084039
 21
22.4975544044
 31
0.0
  0
LINE
  5
EB
330
1F
100
AcDbEntity
  8
0
  6
Continuous
 62
     7
370
    30
100
AcDbLine
 10
45.9986084039
 20
15.4975544044
 30
0.0
 11
45.9706084039
 21
15.4975544044
 31
0.0
  0
LINE
  5
EC
330
1F
100
AcDbEntity
  8
0
  6
Continuous
 62
     7
370
    30
100
AcDbLine
 10
45.9986084039
 20
22.4975544044
 30
0.0
 11
45.9706084039
 21
22.4975544044
 31
0.0
  0
LINE
  5
ED
330
1F
100
AcDbEntity
  8
0
  6
Continuous
 62
     7
370
    30
100
AcDbLine
 10
49.9306084039
 20
15.4975544044
 30
0.0
 11
50.5396084039
 21
16.1065544044
 31
0.0
  0
LINE
  5
EE
330
1F
100
AcDbEntity
  8
0
  6
Continuous
 62
     7
370
    30
100
AcDbLine
 10
49.9306084039
 20
15.4975544044
 30
0.0
 11
45.9986084039
 21
15.4975544044
 31
0.0
  0
LINE
  5
EF
330
1F
100
AcDbEntity
  8
0
  6
Continuous
 62
     7
370
    30
100
AcDbLine
 10
49.9306084039
 20
22.4975544044
 30
0.0
 11
45.9986084039
 21
22.4975544044
 31
0.0
  0
LINE
  5
F0
330
1F
100
AcDbEntity
  8
0
  6
Continuous
 62
     7
370
    30
100
AcDbLine
 10
50.5396084039
 20
21.8885544044
 30
0.0
 11
49.9306084039
 21
22.4975544044
 31
0.0
  0
LINE
  5
F1
330
1F
100
AcDbEntity
  8
0
  6
Continuous
 62
     7
370
    30
100
AcDbLine
 10
50.5396084039
 20
16.1065544044
 30
0.0
 11
50.5396084039
 21
21.8885544044
 31
0.0
  0
CIRCLE
  5
F2
330
1F
100
AcDbEntity
  8
0
  6
Continuous
 62
     7
370
    30
100
AcDbCircle
 10
46.4146084039
 20
15.8415544044
 30
0.0
 40
0.0937499999999929
  0
CIRCLE
  5
F3
330
1F
100
AcDbEntity
  8
0
  6
Continuous
 62
     7
370
    30
100
AcDbCircle
 10
47.8686084039
 20
17.9975544044
 30
0.0
 40
0.09375
  0
CIRCLE
  5
F4
330
1F
100
AcDbEntity
  8
0
  6
Continuous
 62
     7
370
    30
100
AcDbCircle
 10
48.7896084039
 20
15.8415544044
 30
0.0
 40
0.09375
  0
CIRCLE
  5
F5
330
1F
100
AcDbEntity
  8
0
  6
Continuous
 62
     7
370
    30
100
AcDbCircle
 10
48.7896084039
 20
22.1535544044
 30
0.0
 40
0.09375
  0
CIRCLE
  5
F6
330
1F
100
AcDbEntity
  8
0
  6
Continuous
 62
     7
370
    30
100
AcDbCircle
 10
47.8686084039
 20
19.9975544044
 30
0.0
 40
0.09375
  0
CIRCLE
  5
F7
330
1F
100
AcDbEntity
  8
0
  6
Continuous
 62
     7
370
    30
100
AcDbCircle
 10
46.4146084039
 20
22.1535544044
 30
0.0
 40
0.09375
  0
LINE
  5
F8
330
1F
100
AcDbEntity
  8
0
  6
Continuous
 62
     7
370
    30
100
AcDbLine
 10
49.9716084039
 20
22.4565544044
 30
0.0
 11
49.9716084039
 21
22.4995544044
 31
0.0
  0
LINE
  5
F9
330
1F
100
AcDbEntity
  8
0
  6
Continuous
 62
     7
370
    30
100
AcDbLine
 10
45.9986084039
 20
22.4995544044
 30
0.0
 11
45.9986084039
 21
22.4975544044
 31
0.0
  0
LINE
  5
FA
330
1F
100
AcDbEntity
  8
0
  6
Continuous
 62
     7
370
    30
100
AcDbLine
 10
45.9986084039
 20
22.4995544044
 30
0.0
 11
49.9716084039
 21
22.4995544044
 31
0.0
  0
CIRCLE
  5
FB
330
1F
100
AcDbEntity
  8
0
  6
Continuous
 62
     7
370
    30
100
AcDbCircle
 10
48.7896084039
 20
22.1535544044
 30
0.0
 40
0.0805000000000042
  0
CIRCLE
  5
FC
330
1F
100
AcDbEntity
  8
0
  6
Continuous
 62
     7
370
    30
100
AcDbCircle
 10
46.4146084039
 20
22.1535544044
 30
0.0
 40
0.0805000000000007
  0
LINE
  5
FD
330
1F
100
AcDbEntity
  8
0
  6
Continuous
 62
     7
370
    30
100
AcDbLine
 10
49.9716084039
 20
22.6255544044
 30
0.0
 11
49.9716084039
 21
22.6645544044
 31
0.0
  0
LINE
  5
FE
330
1F
100
AcDbEntity
  8
0
  6
Continuous
 62
     7
370
    30
100
AcDbLine
 10
49.9716084039
 20
22.6255544044
 30
0.0
 11
49.9686084039
 21
22.6255544044
 31
0.0
  0
LINE
  5
FF
330
1F
100
AcDbEntity
  8
0
  6
Continuous
 62
     7
370
    30
100
AcDbLine
 10
49.9686084039
 20
22.6645544044
 30
0.0
 11
49.9686084039
 21
22.6255544044
 31
0.0
  0
LINE
  5
100
330
1F
100
AcDbEntity
  8
0
  6
Continuous
 62
     7
370
    30
100
AcDbLine
 10
49.9716084039
 20
22.6645544044
 30
0.0
 11
49.9686084039
 21
22.6645544044
 31
0.0
  0
LINE
  5
101
330
1F
100
AcDbEntity
  8
0
  6
Continuous
 62
     7
370
    30
100
AcDbLine
 10
49.5396084039
 20
22.6255544044
 30
0.0
 11
49.5396084039
 21
22.6645544044
 31
0.0
  0
LINE
  5
102
330
1F
100
AcDbEntity
  8
0
  6
Continuous
 62
     7
370
    30
100
AcDbLine
 10
49.9686084039
 20
22.6255544044
 30
0.0
 11
49.5396084039
 21
22.6255544044
 31
0.0
  0
LINE
  5
103
330
1F
100
AcDbEntity
  8
0
  6
Continuous
 62
     7
370
    30
100
AcDbLine
 10
49.5396084039
 20
22.6645544044
 30
0.0
 11
49.9686084039
 21
22.6645544044
 31
0.0
  0
LINE
  5
104
330
1F
100
AcDbEntity
  8
0
  6
Continuous
 62
     7
370
    30
100
AcDbLine
 10
49.9716084039
 20
22.5675544044
 30
0.0
 11
49.9716084039
 21
22.5285544044
 31
0.0
  0
ARC
  5
105
330
1F
100
AcDbEntity
  8
0
  6
Continuous
 62
     7
370
    30
100
AcDbCircle
 10
49.9716084039
 20
22.5965544044
 30
0.0
 40
0.0289999999999999
100
AcDbArc
 50
270.0
 51
90.0
  0
ARC
  5
106
330
1F
100
AcDbEntity
  8
0
  6
Continuous
 62
     7
370
    30
100
AcDbCircle
 10
49.9716084039
 20
22.5965544044
 30
0.0
 40
0.0680000000000014
100
AcDbArc
 50
270.0
 51
90.0
  0
LINE
  5
107
330
1F
100
AcDbEntity
  8
0
  6
Continuous
 62
     7
370
    30
100
AcDbLine
 10
45.9986084039
 20
22.4995544044
 30
0.0
 11
45.9986084039
 21
22.5285544044
 31
0.0
  0
LINE
  5
108
330
1F
100
AcDbEntity
  8
0
  6
Continuous
 62
     7
370
    30
100
AcDbLine
 10
45.9986084039
 20
22.5675544044
 30
0.0
 11
49.9716084039
 21
22.5675544044
 31
0.0
  0
LINE
  5
109
330
1F
100
AcDbEntity
  8
0
  6
Continuous
 62
     7
370
    30
100
AcDbLine
 10
49.9716084039
 20
22.5285544044
 30
0.0
 11
49.9716084039
 21
22.4995544044
 31
0.0
  0
ARC
  5
10A
330
1F
100
AcDbEntity
  8
0
  6
Continuous
 62
     7
370
    30
100
AcDbCircle
 10
45.9986084039
 20
22.5965544044
 30
0.0
 40
0.068000000000007
100
AcDbArc
 50
245.6842608288
 51
270.0
  0
ARC
  5
10B
330
1F
100
AcDbEntity
  8
0
  6
Continuous
 62
     7
370
    30
100
AcDbCircle
 10
45.9986084039
 20
22.5965544044
 30
0.0
 40
0.0290000000000043
100
AcDbArc
 50
195.0901851796
 51
270.0
  0
LINE
  5
10C
330
1F
100
AcDbEntity
  8
0
  6
Continuous
 62
     7
370
    30
100
AcDbLine
 10
45.9986084039
 20
22.5675544044
 30
0.0
 11
45.9986084039
 21
22.5285544044
 31
0.0
  0
LINE
  5
10D
330
1F
100
AcDbEntity
  8
0
  6
Continuous
 62
     7
370
    30
100
AcDbLine
 10
45.9986084039
 20
15.4975544044
 30
0.0
 11
45.9986084039
 21
15.4955544044
 31
0.0
  0
LINE
  5
10E
330
1F
100
AcDbEntity
  8
0
  6
Continuous
 62
     7
370
    30
100
AcDbLine
 10
49.9716084039
 20
15.4955544044
 30
0.0
 11
49.9716084039
 21
15.5385544044
 31
0.0
  0
LINE
  5
10F
330
1F
100
AcDbEntity
  8
0
  6
Continuous
 62
     7
370
    30
100
AcDbLine
 10
49.9716084039
 20
15.4955544044
 30
0.0
 11
45.9986084039
 21
15.4955544044
 31
0.0
  0
CIRCLE
  5
110
330
1F
100
AcDbEntity
  8
0
  6
Continuous
 62
     7
370
    30
100
AcDbCircle
 10
48.7896084039
 20
15.8415544044
 30
0.0
 40
0.0805000000000007
  0
CIRCLE
  5
111
330
1F
100
AcDbEntity
  8
0
  6
Continuous
 62
     7
370
    30
100
AcDbCircle
 10
46.4146084039
 20
15.8415544044
 30
0.0
 40
0.0805000000000007
  0
LINE
  5
112
330
1F
100
AcDbEntity
  8
0
  6
Continuous
 62
     7
370
    30
100
AcDbLine
 10
49.9716084039
 20
15.4275544044
 30
0.0
 11
49.9716084039
 21
15.4665544044
 31
0.0
  0
ARC
  5
113
330
1F
100
AcDbEntity
  8
0
  6
Continuous
 62
     7
370
    30
100
AcDbCircle
 10
49.9716084039
 20
15.3985544044
 30
0.0
 40
0.0680000000000014
100
AcDbArc
 50
270.0
 51
90.0
  0
LINE
  5
114
330
1F
100
AcDbEntity
  8
0
  6
Continuous
 62
     7
370
    30
100
AcDbLine
 10
49.9716084039
 20
15.3695544044
 30
0.0
 11
49.9716084039
 21
15.3305544044
 31
0.0
  0
ARC
  5
115
330
1F
100
AcDbEntity
  8
0
  6
Continuous
 62
     7
370
    30
100
AcDbCircle
 10
49.9716084039
 20
15.3985544044
 30
0.0
 40
0.0289999999999999
100
AcDbArc
 50
270.0
 51
90.0
  0
LINE
  5
116
330
1F
100
AcDbEntity
  8
0
  6
Continuous
 62
     7
370
    30
100
AcDbLine
 10
49.9686084039
 20
15.3695544044
 30
0.0
 11
49.9686084039
 21
15.3305544044
 31
0.0
  0
LINE
  5
117
330
1F
100
AcDbEntity
  8
0
  6
Continuous
 62
     7
370
    30
100
AcDbLine
 10
49.5396084039
 20
15.3305544044
 30
0.0
 11
49.5396084039
 21
15.3695544044
 31
0.0
  0
LINE
  5
118
330
1F
100
AcDbEntity
  8
0
  6
Continuous
 62
     7
370
    30
100
AcDbLine
 10
49.5396084039
 20
15.3695544044
 30
0.0
 11
49.9686084039
 21
15.3695544044
 31
0.0
  0
LINE
  5
119
330
1F
100
AcDbEntity
  8
0
  6
Continuous
 62
     7
370
    30
100
AcDbLine
 10
49.9686084039
 20
15.3305544044
 30
0.0
 11
49.5396084039
 21
15.3305544044
 31
0.0
  0
LINE
  5
11A
330
1F
100
AcDbEntity
  8
0
  6
Continuous
 62
     7
370
    30
100
AcDbLine
 10
45.9986084039
 20
15.4665544044
 30
0.0
 11
45.9986084039
 21
15.4955544044
 31
0.0
  0
LINE
  5
11B
330
1F
100
AcDbEntity
  8
0
  6
Continuous
 62
     7
370
    30
100
AcDbLine
 10
49.9716084039
 20
15.4275544044
 30
0.0
 11
45.9986084039
 21
15.4275544044
 31
0.0
  0
LINE
  5
11C
330
1F
100
AcDbEntity
  8
0
  6
Continuous
 62
     7
370
    30
100
AcDbLine
 10
49.9716084039
 20
15.4955544044
 30
0.0
 11
49.9716084039
 21
15.4665544044
 31
0.0
  0
LINE
  5
11D
330
1F
100
AcDbEntity
  8
0
  6
Continuous
 62
     7
370
    30
100
AcDbLine
 10
49.9686084039
 20
15.3695544044
 30
0.0
 11
49.9716084039
 21
15.3695544044
 31
0.0
  0
LINE
  5
11E
330
1F
100
AcDbEntity
  8
0
  6
Continuous
 62
     7
370
    30
100
AcDbLine
 10
49.9686084039
 20
15.3305544044
 30
0.0
 11
49.9716084039
 21
15.3305544044
 31
0.0
  0
ARC
  5
11F
330
1F
100
AcDbEntity
  8
0
  6
Continuous
 62
     7
370
    30
100
AcDbCircle
 10
45.9986084039
 20
15.3985544044
 30
0.0
 40
0.0680000000000022
100
AcDbArc
 50
90.0
 51
114.3157391712
  0
LINE
  5
120
330
1F
100
AcDbEntity
  8
0
  6
Continuous
 62
     7
370
    30
100
AcDbLine
 10
45.9986084039
 20
15.4275544044
 30
0.0
 11
45.9986084039
 21
15.4665544044
 31
0.0
  0
ARC
  5
121
330
1F
100
AcDbEntity
  8
0
  6
Continuous
 62
     7
370
    30
100
AcDbCircle
 10
45.9986084039
 20
15.3985544044
 30
0.0
 40
0.0290000000000062
100
AcDbArc
 50
90.0
 51
164.9098148204
  0
ARC
  5
122
330
1F
100
AcDbEntity
  8
0
  6
Continuous
 62
     7
370
    30
100
AcDbCircle
 10
17.2521084039
 20
4.306539048
 30
0.0
 40
0.4375000000000027
100
AcDbArc
 50
278.2793756981
 51
81.7206243019
  0
LINE
  5
123
330
1F
100
AcDbEntity
  8
0
  6
Continuous
 62
     7
370
    30
100
AcDbLine
 10
17.3151084039
 20
4.6764792864
 30
0.0
 11
17.3151084039
 21
4.7394792864
 31
0.0
  0
LINE
  5
124
330
1F
100
AcDbEntity
  8
0
  6
Continuous
 62
     7
370
    30
100
AcDbLine
 10
17.1891084039
 20
4.6764792864
 30
0.0
 11
17.3151084039
 21
4.6764792864
 31
0.0
  0
LINE
  5
125
330
1F
100
AcDbEntity
  8
0
  6
Continuous
 62
     7
370
    30
100
AcDbLine
 10
17.1891084039
 20
4.7394792864
 30
0.0
 11
17.1891084039
 21
4.6764792864
 31
0.0
  0
ARC
  5
126
330
1F
100
AcDbEntity
  8
0
  6
Continuous
 62
     7
370
    30
100
AcDbCircle
 10
17.2521084039
 20
4.306539048
 30
0.0
 40
0.4375000000000017
100
AcDbArc
 50
98.2793756981
 51
261.7206243019
  0
LINE
  5
127
330
1F
100
AcDbEntity
  8
0
  6
Continuous
 62
     7
370
    30
100
AcDbLine
 10
17.1891084039
 20
3.9363277497
 30
0.0
 11
17.1891084039
 21
3.8735988097
 31
0.0
  0
LINE
  5
128
330
1F
100
AcDbEntity
  8
0
  6
Continuous
 62
     7
370
    30
100
AcDbLine
 10
17.3151084039
 20
3.9365989556
 30
0.0
 11
17.1891084039
 21
3.9363277497
 31
0.0
  0
LINE
  5
129
330
1F
100
AcDbEntity
  8
0
  6
Continuous
 62
     7
370
    30
100
AcDbLine
 10
17.3151084039
 20
3.8735988097
 30
0.0
 11
17.3151084039
 21
3.9365989556
 31
0.0
  0
ARC
  5
12A
330
1F
100
AcDbEntity
  8
0
  6
Continuous
 62
     7
370
    30
100
AcDbCircle
 10
11.2521084039
 20
4.306539048
 30
0.0
 40
0.4375000000000019
100
AcDbArc
 50
278.2793756981
 51
81.7206243019
  0
LINE
  5
12B
330
1F
100
AcDbEntity
  8
0
  6
Continuous
 62
     7
370
    30
100
AcDbLine
 10
11.3151084039
 20
4.6764792864
 30
0.0
 11
11.3151084039
 21
4.7394792864
 31
0.0
  0
LINE
  5
12C
330
1F
100
AcDbEntity
  8
0
  6
Continuous
 62
     7
370
    30
100
AcDbLine
 10
11.1891084039
 20
4.6764792864
 30
0.0
 11
11.3151084039
 21
4.6764792864
 31
0.0
  0
LINE
  5
12D
330
1F
100
AcDbEntity
  8
0
  6
Continuous
 62
     7
370
    30
100
AcDbLine
 10
11.1891084039
 20
4.7394792864
 30
0.0
 11
11.1891084039
 21
4.6764792864
 31
0.0
  0
ARC
  5
12E
330
1F
100
AcDbEntity
  8
0
  6
Continuous
 62
     7
370
    30
100
AcDbCircle
 10
11.2521084039
 20
4.306539048
 30
0.0
 40
0.4375000000000027
100
AcDbArc
 50
98.2793756981
 51
261.7206243019
  0
LINE
  5
12F
330
1F
100
AcDbEntity
  8
0
  6
Continuous
 62
     7
370
    30
100
AcDbLine
 10
11.1891084039
 20
3.9363277497
 30
0.0
 11
11.1891084039
 21
3.8735988097
 31
0.0
  0
LINE
  5
130
330
1F
100
AcDbEntity
  8
0
  6
Continuous
 62
     7
370
    30
100
AcDbLine
 10
11.3151084039
 20
3.9365989556
 30
0.0
 11
11.1891084039
 21
3.9363277497
 31
0.0
  0
LINE
  5
131
330
1F
100
AcDbEntity
  8
0
  6
Continuous
 62
     7
370
    30
100
AcDbLine
 10
11.3151084039
 20
3.8735988097
 30
0.0
 11
11.3151084039
 21
3.9365989556
 31
0.0
  0
LINE
  5
132
330
1F
100
AcDbEntity
  8
0
  6
Continuous
 62
     7
370
    30
100
AcDbLine
 10
5.2670930476
 20
7.5085236917
 30
0.0
 11
5.2811237603
 21
7.5225544044
 31
0.0
  0
LINE
  5
133
330
1F
100
AcDbEntity
  8
0
  6
Continuous
 62
     7
370
    30
100
AcDbLine
 10
5.2811237603
 20
7.5225544044
 30
0.0
 11
23.2230930476
 21
7.5225544044
 31
0.0
  0
LINE
  5
134
330
1F
100
AcDbEntity
  8
0
  6
Continuous
 62
     7
370
    30
100
AcDbLine
 10
23.2371237603
 20
7.5085236917
 30
0.0
 11
23.2371237603
 21
1.213039048
 31
0.0
  0
LINE
  5
135
330
1F
100
AcDbEntity
  8
0
  6
Continuous
 62
     7
370
    30
100
AcDbLine
 10
23.1471237603
 20
1.213039048
 30
0.0
 11
23.2371237603
 21
1.213039048
 31
0.0
  0
LINE
  5
136
330
1F
100
AcDbEntity
  8
0
  6
Continuous
 62
     7
370
    30
100
AcDbLine
 10
5.3341237603
 20
1.213039048
 30
0.0
 11
5.2670930476
 21
1.213039048
 31
0.0
  0
LINE
  5
137
330
1F
100
AcDbEntity
  8
0
  6
Continuous
 62
     7
370
    30
100
AcDbLine
 10
5.2670930476
 20
1.213039048
 30
0.0
 11
5.2670930476
 21
7.5085236917
 31
0.0
  0
LINE
  5
138
330
1F
100
AcDbEntity
  8
0
  6
Continuous
 62
     7
370
    30
100
AcDbLine
 10
23.2371237603
 20
7.5085236917
 30
0.0
 11
23.2230930476
 21
7.5225544044
 31
0.0
  0
LINE
  5
139
330
1F
100
AcDbEntity
  8
0
  6
Continuous
 62
     7
370
    30
100
AcDbLine
 10
23.2721237603
 20
7.5035544044
 30
0.0
 11
23.2721237603
 21
1.213039048
 31
0.0
  0
LINE
  5
13A
330
1F
100
AcDbEntity
  8
0
  6
Continuous
 62
     7
370
    30
100
AcDbLine
 10
23.2371237603
 20
1.213039048
 30
0.0
 11
23.2721237603
 21
1.213039048
 31
0.0
  0
SPLINE
  5
13B
330
1F
100
AcDbEntity
  8
0
  6
Continuous
 62
     7
370
    30
100
AcDbSpline
210
0.0
220
0.0
230
1.0
 70
     8
 71
     3
 72
    11
 73
     7
 74
     0
 42
0.00000001
 43
0.00000001
 40
0.0
 40
0.0
 40
0.0
 40
0.0
 40
0.2500000000000078
 40
0.5000000000000024
 40
0.7500000000000071
 40
1.0
 40
1.0
 40
1.0
 40
1.0
 10
23.27212376026456
 20
7.503554404373168
 30
0.0
 10
23.27159765521701
 20
7.503968511652326
 30
0.0
 10
23.27054544512189
 20
7.504796726210648
 30
0.0
 10
23.2624517226626
 20
7.506039048048128
 30
0.0
 10
23.25088264986421
 20
7.507281369885598
 30
0.0
 10
23.24171005679778
 20
7.508109584443917
 30
0.0
 10
23.23712376026456
 20
7.508523691723076
 30
0.0
  0
SPLINE
  5
13C
330
1F
100
AcDbEntity
  8
0
  6
Continuous
 62
     7
370
    30
100
AcDbSpline
210
0.0
220
0.0
230
1.0
 70
     8
 71
     3
 72
    11
 73
     7
 74
     0
 42
0.00000001
 43
0.00000001
 40
0.0
 40
0.0
 40
0.0
 40
0.0
 40
0.2500000000000174
 40
0.4999999999999938
 40
0.75000000000002
 40
1.0
 40
1.0
 40
1.0
 40
1.0
 10
5.281123760264546
 20
7.522554404373277
 30
0.0
 10
5.281330813904125
 20
7.524846079627783
 30
0.0
 10
5.281744921183293
 20
7.529429430136793
 30
0.0
 10
5.282366082102022
 20
7.536023268942614
 30
0.0
 10
5.28298724302076
 20
7.542167441129093
 30
0.0
 10
5.283401350299923
 20
7.545591241519573
 30
0.0
 10
5.283608403939502
 20
7.547303141714814
 30
0.0
  0
SPLINE
  5
13D
330
1F
100
AcDbEntity
  8
0
  6
Continuous
 62
     7
370
    30
100
AcDbSpline
210
0.0
220
0.0
230
1.0
 70
     8
 71
     3
 72
    11
 73
     7
 74
     0
 42
0.00000001
 43
0.00000001
 40
0.0
 40
0.0
 40
0.0
 40
0.0
 40
0.2499970384564096
 40
0.4999980256376078
 40
0.7499990128187968
 40
1.0
 40
1.0
 40
1.0
 40
1.0
 10
5.283608394096982
 20
7.547303218713693
 30
0.0
 10
5.283401343741044
 20
7.54883220853442
 30
0.0
 10
5.282987239758794
 20
7.5518902123264
 30
0.0
 10
5.282366082099784
 20
7.555071119946742
 30
0.0
 10
5.281744921183853
 20
7.557166452701082
 30
0.0
 10
5.281330813904318
 20
7.557425087149214
 30
0.0
 10
5.281123760264546
 20
7.557554404373279
 30
0.0
  0
LINE
  5
13E
330
1F
100
AcDbEntity
  8
0
  6
Continuous
 62
     7
370
    30
100
AcDbLine
 10
5.2811237603
 20
7.5575544044
 30
0.0
 11
23.2230930476
 21
7.5575544044
 31
0.0
  0
SPLINE
  5
13F
330
1F
100
AcDbEntity
  8
0
  6
Continuous
 62
     7
370
    30
100
AcDbSpline
210
0.0
220
0.0
230
1.0
 70
     8
 71
     3
 72
    11
 73
     7
 74
     0
 42
0.00000001
 43
0.00000001
 40
0.0
 40
0.0
 40
0.0
 40
0.0
 40
0.2499970384557623
 40
0.499998025637172
 40
0.7499990128185922
 40
1.0
 40
1.0
 40
1.0
 40
1.0
 10
23.22060841378203
 20
7.547303218713601
 30
0.0
 10
23.22081546413796
 20
7.548832208534321
 30
0.0
 10
23.22122956812021
 20
7.551890212326291
 30
0.0
 10
23.22185072577923
 20
7.555071119946627
 30
0.0
 10
23.22247188669516
 20
7.557166452700969
 30
0.0
 10
23.22288599397469
 20
7.557425087149101
 30
0.0
 10
23.22309304761446
 20
7.557554404373169
 30
0.0
  0
SPLINE
  5
140
330
1F
100
AcDbEntity
  8
0
  6
Continuous
 62
     7
370
    30
100
AcDbSpline
210
0.0
220
0.0
230
1.0
 70
     8
 71
     3
 72
    11
 73
     7
 74
     0
 42
0.00000001
 43
0.00000001
 40
0.0
 40
0.0
 40
0.0
 40
0.0
 40
0.2500000000000068
 40
0.4999999999999868
 40
0.7500000000000167
 40
1.0
 40
1.0
 40
1.0
 40
1.0
 10
23.22309304761446
 20
7.522554404373168
 30
0.0
 10
23.22288599397488
 20
7.524846079627671
 30
0.0
 10
23.22247188669572
 20
7.529429430136684
 30
0.0
 10
23.22185072577698
 20
7.536023268942508
 30
0.0
 10
23.22122956485824
 20
7.542167441128989
 30
0.0
 10
23.22081545757909
 20
7.545591241519464
 30
0.0
 10
23.22060840393951
 20
7.547303141714704
 30
0.0
  0
LINE
  5
141
330
1F
100
AcDbEntity
  8
0
  6
Continuous
 62
     7
370
    30
100
AcDbLine
 10
5.2670930476
 20
1.213039048
 30
0.0
 11
5.2320930476
 21
1.213039048
 31
0.0
  0
LINE
  5
142
330
1F
100
AcDbEntity
  8
0
  6
Continuous
 62
     7
370
    30
100
AcDbLine
 10
5.2320930476
 20
1.213039048
 30
0.0
 11
5.2320930476
 21
7.5035544044
 31
0.0
  0
SPLINE
  5
143
330
1F
100
AcDbEntity
  8
0
  6
Continuous
 62
     7
370
    30
100
AcDbSpline
210
0.0
220
0.0
230
1.0
 70
     8
 71
     3
 72
    11
 73
     7
 74
     0
 42
0.00000001
 43
0.00000001
 40
0.0
 40
0.0
 40
0.0
 40
0.0
 40
0.2500000000000011
 40
0.5000000000000174
 40
0.7499999999999989
 40
1.0
 40
1.0
 40
1.0
 40
1.0
 10
5.23209304761447
 20
7.503554404373292
 30
0.0
 10
5.232619152662028
 20
7.503968511652451
 30
0.0
 10
5.233671362757141
 20
7.504796726210766
 30
0.0
 10
5.241765085216435
 20
7.506039048048248
 30
0.0
 10
5.253334158014817
 20
7.507281369885731
 30
0.0
 10
5.262506751081253
 20
7.508109584444044
 30
0.0
 10
5.267093047614472
 20
7.508523691723203
 30
0.0
  0
LINE
  5
144
330
1F
100
AcDbEntity
  8
0
  6
Continuous
 62
     7
370
    30
100
AcDbLine
 10
23.2230930476
 20
7.5235544044
 30
0.0
 11
23.2230930476
 21
7.5575544044
 31
0.0
  0
LINE
  5
145
330
1F
100
AcDbEntity
  8
0
  6
Continuous
 62
     7
370
    30
100
AcDbLine
 10
5.2811237603
 20
7.5235544044
 30
0.0
 11
5.2811237603
 21
7.5575544044
 31
0.0
  0
LINE
  5
146
330
1F
100
AcDbEntity
  8
0
  6
Continuous
 62
     7
370
    30
100
AcDbLine
 10
23.2371237603
 20
7.5235544044
 30
0.0
 11
23.2371237603
 21
7.5575544044
 31
0.0
  0
LINE
  5
147
330
1F
100
AcDbEntity
  8
0
  6
Continuous
 62
     7
370
    30
100
AcDbLine
 10
23.2230930476
 20
7.5235544044
 30
0.0
 11
23.2371237603
 21
7.5235544044
 31
0.0
  0
LINE
  5
148
330
1F
100
AcDbEntity
  8
0
  6
Continuous
 62
     7
370
    30
100
AcDbLine
 10
23.2230930476
 20
7.5575544044
 30
0.0
 11
23.2371237603
 21
7.5575544044
 31
0.0
  0
LINE
  5
149
330
1F
100
AcDbEntity
  8
0
  6
Continuous
 62
     7
370
    30
100
AcDbLine
 10
5.2811237603
 20
7.5235544044
 30
0.0
 11
5.2670930476
 21
7.5235544044
 31
0.0
  0
LINE
  5
14A
330
1F
100
AcDbEntity
  8
0
  6
Continuous
 62
     7
370
    30
100
AcDbLine
 10
5.2670930476
 20
7.5235544044
 30
0.0
 11
5.2670930476
 21
7.5575544044
 31
0.0
  0
LINE
  5
14B
330
1F
100
AcDbEntity
  8
0
  6
Continuous
 62
     7
370
    30
100
AcDbLine
 10
5.2811237603
 20
7.5575544044
 30
0.0
 11
5.2670930476
 21
7.5575544044
 31
0.0
  0
SPLINE
  5
14C
330
1F
100
AcDbEntity
  8
0
  6
Continuous
 62
     7
370
    30
100
AcDbSpline
210
0.0
220
0.0
230
1.0
 70
     8
 71
     3
 72
    11
 73
     7
 74
     0
 42
0.00000001
 43
0.00000001
 40
0.0
 40
0.0
 40
0.0
 40
0.0
 40
0.2500000000000289
 40
0.4999999999999916
 40
0.7500000000000019
 40
0.9999999999999999
 40
0.9999999999999999
 40
0.9999999999999999
 40
0.9999999999999999
 10
5.267093047614467
 20
7.557554404373279
 30
0.0
 10
5.262506751081244
 20
7.557028299325722
 30
0.0
 10
5.253334158014808
 20
7.555976089230612
 30
0.0
 10
5.241765085216417
 20
7.547882366771319
 30
0.0
 10
5.233671362757133
 20
7.536313293972919
 30
0.0
 10
5.232619152662028
 20
7.527140700906475
 30
0.0
 10
5.23209304761447
 20
7.522554404373254
 30
0.0
  0
SPLINE
  5
14D
330
1F
100
AcDbEntity
  8
0
  6
Continuous
 62
     7
370
    30
100
AcDbSpline
210
0.0
220
0.0
230
1.0
 70
     8
 71
     3
 72
     9
 73
     5
 74
     0
 42
0.00000001
 43
0.00000001
 40
0.0
 40
0.0
 40
0.0
 40
0.0
 40
0.5000000000004254
 40
1.0
 40
1.0
 40
1.0
 40
1.0
 10
5.267093047614467
 20
7.52355440437328
 30
0.0
 10
5.26682282755721
 20
7.523491291097205
 30
0.0
 10
5.266282387442685
 20
7.523365064545061
 30
0.0
 10
5.26615616089054
 20
7.522824624430537
 30
0.0
 10
5.266093047614469
 20
7.522554404373277
 30
0.0
  0
LINE
  5
14E
330
1F
100
AcDbEntity
  8
0
  6
Continuous
 62
     7
370
    30
100
AcDbLine
 10
5.2660930476
 20
7.5225544044
 30
0.0
 11
5.2320930476
 21
7.5225544044
 31
0.0
  0
LINE
  5
14F
330
1F
100
AcDbEntity
  8
0
  6
Continuous
 62
     7
370
    30
100
AcDbLine
 10
23.2381237603
 20
7.5225544044
 30
0.0
 11
23.2721237603
 21
7.5225544044
 31
0.0
  0
SPLINE
  5
150
330
1F
100
AcDbEntity
  8
0
  6
Continuous
 62
     7
370
    30
100
AcDbSpline
210
0.0
220
0.0
230
1.0
 70
     8
 71
     3
 72
     9
 73
     5
 74
     0
 42
0.00000001
 43
0.00000001
 40
0.0
 40
0.0
 40
0.0
 40
0.0
 40
0.4999999999999999
 40
0.9999999999999999
 40
0.9999999999999999
 40
0.9999999999999999
 40
0.9999999999999999
 10
23.23712376026456
 20
7.52355440437317
 30
0.0
 10
23.23739398032182
 20
7.523491291097096
 30
0.0
 10
23.23793442043634
 20
7.523365064544952
 30
0.0
 10
23.23806064698849
 20
7.52282462443043
 30
0.0
 10
23.23812376026456
 20
7.52255440437317
 30
0.0
  0
SPLINE
  5
151
330
1F
100
AcDbEntity
  8
0
  6
Continuous
 62
     7
370
    30
100
AcDbSpline
210
0.0
220
0.0
230
1.0
 70
     8
 71
     3
 72
    11
 73
     7
 74
     0
 42
0.00000001
 43
0.00000001
 40
0.0
 40
0.0
 40
0.0
 40
0.0
 40
0.2500000000000069
 40
0.5000000000000085
 40
0.750000000000012
 40
1.0
 40
1.0
 40
1.0
 40
1.0
 10
23.23712376026456
 20
7.557554404373169
 30
0.0
 10
23.24171005679778
 20
7.557028299325615
 30
0.0
 10
23.25088264986422
 20
7.555976089230502
 30
0.0
 10
23.2624517226626
 20
7.547882366771216
 30
0.0
 10
23.27054544512189
 20
7.536313293972831
 30
0.0
 10
23.27159765521701
 20
7.527140700906393
 30
0.0
 10
23.27212376026456
 20
7.522554404373176
 30
0.0
  0
LINE
  5
152
330
1F
100
AcDbEntity
  8
0
  6
Continuous
 62
     7
370
    30
100
AcDbLine
 10
5.2320930476
 20
7.5225544044
 30
0.0
 11
5.2320930476
 21
7.5035544044
 31
0.0
  0
LINE
  5
153
330
1F
100
AcDbEntity
  8
0
  6
Continuous
 62
     7
370
    30
100
AcDbLine
 10
5.2660930476
 20
7.5225544044
 30
0.0
 11
5.2660930476
 21
7.5084309391
 31
0.0
  0
LINE
  5
154
330
1F
100
AcDbEntity
  8
0
  6
Continuous
 62
     7
370
    30
100
AcDbLine
 10
23.2721237603
 20
7.5225544044
 30
0.0
 11
23.2721237603
 21
7.5035544044
 31
0.0
  0
LINE
  5
155
330
1F
100
AcDbEntity
  8
0
  6
Continuous
 62
     7
370
    30
100
AcDbLine
 10
23.2381237603
 20
7.5225544044
 30
0.0
 11
23.2381237603
 21
7.5084309391
 31
0.0
  0
LINE
  5
156
330
1F
100
AcDbEntity
  8
0
  6
Continuous
 62
     7
370
    30
100
AcDbLine
 10
17.1891084039
 20
3.9363277497
 30
0.0
 11
17.1891084039
 21
3.9365988097
 31
0.0
  0
LINE
  5
157
330
1F
100
AcDbEntity
  8
0
  6
Continuous
 62
     7
370
    30
100
AcDbLine
 10
17.1891084039
 20
3.9365988097
 30
0.0
 11
17.3150406025
 21
3.9365988097
 31
0.0
  0
LINE
  5
158
330
1F
100
AcDbEntity
  8
0
  6
Continuous
 62
     7
370
    30
100
AcDbLine
 10
11.1891084039
 20
3.9363277497
 30
0.0
 11
11.1891084039
 21
3.9365988097
 31
0.0
  0
LINE
  5
159
330
1F
100
AcDbEntity
  8
0
  6
Continuous
 62
     7
370
    30
100
AcDbLine
 10
11.1891084039
 20
3.9365988097
 30
0.0
 11
11.3150406025
 21
3.9365988097
 31
0.0
  0
SPLINE
  5
15A
330
1F
100
AcDbEntity
  8
0
  6
Continuous
 62
     7
370
    30
100
AcDbSpline
210
0.0
220
0.0
230
1.0
 70
     8
 71
     3
 72
    11
 73
     7
 74
     0
 42
0.00000001
 43
0.00000001
 40
0.0
 40
0.0
 40
0.0
 40
0.0
 40
0.2500000000000189
 40
0.5000000000000311
 40
0.7500000000000433
 40
1.0
 40
1.0
 40
1.0
 40
1.0
 10
5.23209304761447
 20
30.49155440437322
 30
0.0
 10
5.232619152662028
 20
30.49114029709406
 30
0.0
 10
5.233671362757137
 20
30.49031208253574
 30
0.0
 10
5.241765085216435
 20
30.48906976069827
 30
0.0
 10
5.253334158014826
 20
30.48782743886078
 30
0.0
 10
5.262506751081267
 20
30.48699922430247
 30
0.0
 10
5.267093047614485
 20
30.48658511702331
 30
0.0
  0
LINE
  5
15B
330
1F
100
AcDbEntity
  8
0
  6
Continuous
 62
     7
370
    30
100
AcDbLine
 10
5.2320930476
 20
30.4915544044
 30
0.0
 11
5.2320930476
 21
36.7820697607
 31
0.0
  0
LINE
  5
15C
330
1F
100
AcDbEntity
  8
0
  6
Continuous
 62
     7
370
    30
100
AcDbLine
 10
5.2670930476
 20
36.7820697607
 30
0.0
 11
5.2320930476
 21
36.7820697607
 31
0.0
  0
LINE
  5
15D
330
1F
100
AcDbEntity
  8
0
  6
Continuous
 62
     7
370
    30
100
AcDbLine
 10
5.2670930476
 20
30.486585117
 30
0.0
 11
5.2670930476
 21
36.7820697607
 31
0.0
  0
LINE
  5
15E
330
1F
100
AcDbEntity
  8
0
  6
Continuous
 62
     7
370
    30
100
AcDbLine
 10
23.2371237603
 20
36.7820697607
 30
0.0
 11
23.2371237603
 21
30.486585117
 31
0.0
  0
LINE
  5
15F
330
1F
100
AcDbEntity
  8
0
  6
Continuous
 62
     7
370
    30
100
AcDbLine
 10
23.2371237603
 20
36.7820697607
 30
0.0
 11
23.2721237603
 21
36.7820697607
 31
0.0
  0
LINE
  5
160
330
1F
100
AcDbEntity
  8
0
  6
Continuous
 62
     7
370
    30
100
AcDbLine
 10
23.2721237603
 20
36.7820697607
 30
0.0
 11
23.2721237603
 21
30.4915544044
 31
0.0
  0
SPLINE
  5
161
330
1F
100
AcDbEntity
  8
0
  6
Continuous
 62
     7
370
    30
100
AcDbSpline
210
0.0
220
0.0
230
1.0
 70
     8
 71
     3
 72
    11
 73
     7
 74
     0
 42
0.00000001
 43
0.00000001
 40
0.0
 40
0.0
 40
0.0
 40
0.0
 40
0.2499999999999841
 40
0.499999999999999
 40
0.7499999999999807
 40
1.0
 40
1.0
 40
1.0
 40
1.0
 10
23.27212376026456
 20
30.49155440437334
 30
0.0
 10
23.271597655217
 20
30.49114029709418
 30
0.0
 10
23.27054544512188
 20
30.49031208253585
 30
0.0
 10
23.2624517226626
 20
30.48906976069837
 30
0.0
 10
23.2508826498642
 20
30.48782743886091
 30
0.0
 10
23.24171005679776
 20
30.48699922430258
 30
0.0
 10
23.23712376026455
 20
30.48658511702342
 30
0.0
  0
ARC
  5
162
330
1F
100
AcDbEntity
  8
0
  6
Continuous
 62
     7
370
    30
100
AcDbCircle
 10
11.2521084039
 20
33.6885697607
 30
0.0
 40
0.4375000000000099
100
AcDbArc
 50
278.2793756981
 51
81.7206243019
  0
LINE
  5
163
330
1F
100
AcDbEntity
  8
0
  6
Continuous
 62
     7
370
    30
100
AcDbLine
 10
11.3151084039
 20
34.0585099991
 30
0.0
 11
11.3151084039
 21
34.1215099991
 31
0.0
  0
LINE
  5
164
330
1F
100
AcDbEntity
  8
0
  6
Continuous
 62
     7
370
    30
100
AcDbLine
 10
11.1891084039
 20
34.0585099991
 30
0.0
 11
11.3151084039
 21
34.0585099991
 31
0.0
  0
LINE
  5
165
330
1F
100
AcDbEntity
  8
0
  6
Continuous
 62
     7
370
    30
100
AcDbLine
 10
11.1891084039
 20
34.1215099991
 30
0.0
 11
11.1891084039
 21
34.0585099991
 31
0.0
  0
ARC
  5
166
330
1F
100
AcDbEntity
  8
0
  6
Continuous
 62
     7
370
    30
100
AcDbCircle
 10
11.2521084039
 20
33.6885697607
 30
0.0
 40
0.4374999999999966
100
AcDbArc
 50
98.2793756981
 51
261.7206243019
  0
LINE
  5
167
330
1F
100
AcDbEntity
  8
0
  6
Continuous
 62
     7
370
    30
100
AcDbLine
 10
11.1891084039
 20
33.3183584623
 30
0.0
 11
11.1891084039
 21
33.2556295223
 31
0.0
  0
LINE
  5
168
330
1F
100
AcDbEntity
  8
0
  6
Continuous
 62
     7
370
    30
100
AcDbLine
 10
11.3151084039
 20
33.3186296683
 30
0.0
 11
11.1891084039
 21
33.3183584623
 31
0.0
  0
LINE
  5
169
330
1F
100
AcDbEntity
  8
0
  6
Continuous
 62
     7
370
    30
100
AcDbLine
 10
11.3151084039
 20
33.2556295223
 30
0.0
 11
11.3151084039
 21
33.3186296683
 31
0.0
  0
ARC
  5
16A
330
1F
100
AcDbEntity
  8
0
  6
Continuous
 62
     7
370
    30
100
AcDbCircle
 10
17.2521084039
 20
33.6885697607
 30
0.0
 40
0.4375000000000096
100
AcDbArc
 50
278.2793756981
 51
81.7206243019
  0
LINE
  5
16B
330
1F
100
AcDbEntity
  8
0
  6
Continuous
 62
     7
370
    30
100
AcDbLine
 10
17.3151084039
 20
34.0585099991
 30
0.0
 11
17.3151084039
 21
34.1215099991
 31
0.0
  0
LINE
  5
16C
330
1F
100
AcDbEntity
  8
0
  6
Continuous
 62
     7
370
    30
100
AcDbLine
 10
17.1891084039
 20
34.0585099991
 30
0.0
 11
17.3151084039
 21
34.0585099991
 31
0.0
  0
LINE
  5
16D
330
1F
100
AcDbEntity
  8
0
  6
Continuous
 62
     7
370
    30
100
AcDbLine
 10
17.1891084039
 20
34.1215099991
 30
0.0
 11
17.1891084039
 21
34.0585099991
 31
0.0
  0
ARC
  5
16E
330
1F
100
AcDbEntity
  8
0
  6
Continuous
 62
     7
370
    30
100
AcDbCircle
 10
17.2521084039
 20
33.6885697607
 30
0.0
 40
0.4375000000000106
100
AcDbArc
 50
98.2793756981
 51
261.7206243019
  0
LINE
  5
16F
330
1F
100
AcDbEntity
  8
0
  6
Continuous
 62
     7
370
    30
100
AcDbLine
 10
17.1891084039
 20
33.3183584623
 30
0.0
 11
17.1891084039
 21
33.2556295223
 31
0.0
  0
LINE
  5
170
330
1F
100
AcDbEntity
  8
0
  6
Continuous
 62
     7
370
    30
100
AcDbLine
 10
17.3151084039
 20
33.3186296683
 30
0.0
 11
17.1891084039
 21
33.3183584623
 31
0.0
  0
LINE
  5
171
330
1F
100
AcDbEntity
  8
0
  6
Continuous
 62
     7
370
    30
100
AcDbLine
 10
17.3151084039
 20
33.2556295223
 30
0.0
 11
17.3151084039
 21
33.3186296683
 31
0.0
  0
LINE
  5
172
330
1F
100
AcDbEntity
  8
0
  6
Continuous
 62
     7
370
    30
100
AcDbLine
 10
5.3341237603
 20
36.7820697607
 30
0.0
 11
5.2670930476
 21
36.7820697607
 31
0.0
  0
LINE
  5
173
330
1F
100
AcDbEntity
  8
0
  6
Continuous
 62
     7
370
    30
100
AcDbLine
 10
23.1471237603
 20
36.7820697607
 30
0.0
 11
23.2371237603
 21
36.7820697607
 31
0.0
  0
LINE
  5
174
330
1F
100
AcDbEntity
  8
0
  6
Continuous
 62
     7
370
    30
100
AcDbLine
 10
23.2371237603
 20
30.486585117
 30
0.0
 11
23.2230930476
 21
30.4725544044
 31
0.0
  0
LINE
  5
175
330
1F
100
AcDbEntity
  8
0
  6
Continuous
 62
     7
370
    30
100
AcDbLine
 10
5.2811237603
 20
30.4725544044
 30
0.0
 11
23.2230930476
 21
30.4725544044
 31
0.0
  0
LINE
  5
176
330
1F
100
AcDbEntity
  8
0
  6
Continuous
 62
     7
370
    30
100
AcDbLine
 10
5.2670930476
 20
30.486585117
 30
0.0
 11
5.2811237603
 21
30.4725544044
 31
0.0
  0
LINE
  5
177
330
1F
100
AcDbEntity
  8
0
  6
Continuous
 62
     7
370
    30
100
AcDbLine
 10
5.2811237603
 20
30.4375544044
 30
0.0
 11
23.2230930476
 21
30.4375544044
 31
0.0
  0
SPLINE
  5
178
330
1F
100
AcDbEntity
  8
0
  6
Continuous
 62
     7
370
    30
100
AcDbSpline
210
0.0
220
0.0
230
1.0
 70
     8
 71
     3
 72
    11
 73
     7
 74
     0
 42
0.00000001
 43
0.00000001
 40
0.0
 40
0.0
 40
0.0
 40
0.0
 40
0.2500000000000015
 40
0.5000000000000093
 40
0.7500000000000169
 40
1.0
 40
1.0
 40
1.0
 40
1.0
 10
5.283608403939511
 20
30.44780566703169
 30
0.0
 10
5.283401350299927
 20
30.44627664900145
 30
0.0
 10
5.28298724302076
 20
30.44321861294098
 30
0.0
 10
5.28236608210204
 20
30.44003768886015
 30
0.0
 10
5.281744921183297
 20
30.43794235603031
 30
0.0
 10
5.281330813904138
 20
30.43768372159225
 30
0.0
 10
5.281123760264554
 20
30.43755440437322
 30
0.0
  0
SPLINE
  5
179
330
1F
100
AcDbEntity
  8
0
  6
Continuous
 62
     7
370
    30
100
AcDbSpline
210
0.0
220
0.0
230
1.0
 70
     8
 71
     3
 72
    11
 73
     7
 74
     0
 42
0.00000001
 43
0.00000001
 40
0.0
 40
0.0
 40
0.0
 40
0.0
 40
0.2500009871811621
 40
0.5000019743623378
 40
0.7500029615435452
 40
0.9999999999999999
 40
0.9999999999999999
 40
0.9999999999999999
 40
0.9999999999999999
 10
5.281123760264554
 20
30.47255440437322
 30
0.0
 10
5.281330813904327
 20
30.47026272912742
 30
0.0
 10
5.281744921183861
 20
30.46567937863584
 30
0.0
 10
5.282366082099784
 20
30.45908553969933
 30
0.0
 10
5.282987239758794
 20
30.45294140035822
 30
0.0
 10
5.283401343741053
 20
30.4495176204602
 30
0.0
 10
5.283608394096991
 20
30.44780574403081
 30
0.0
  0
SPLINE
  5
17A
330
1F
100
AcDbEntity
  8
0
  6
Continuous
 62
     7
370
    30
100
AcDbSpline
210
0.0
220
0.0
230
1.0
 70
     8
 71
     3
 72
    11
 73
     7
 74
     0
 42
0.00000001
 43
0.00000001
 40
0.0
 40
0.0
 40
0.0
 40
0.0
 40
0.2500000000000961
 40
0.5000000000000304
 40
0.7500000000000289
 40
1.0
 40
1.0
 40
1.0
 40
1.0
 10
23.22309304761447
 20
30.47255440437333
 30
0.0
 10
23.22288599397489
 20
30.47026272911883
 30
0.0
 10
23.22247188669573
 20
30.46567937860982
 30
0.0
 10
23.22185072577698
 20
30.459085539804
 30
0.0
 10
23.22122956485825
 20
30.45294136761751
 30
0.0
 10
23.22081545757909
 20
30.44951756722703
 30
0.0
 10
23.22060840393951
 20
30.4478056670318
 30
0.0
  0
SPLINE
  5
17B
330
1F
100
AcDbEntity
  8
0
  6
Continuous
 62
     7
370
    30
100
AcDbSpline
210
0.0
220
0.0
230
1.0
 70
     8
 71
     3
 72
    11
 73
     7
 74
     0
 42
0.00000001
 43
0.00000001
 40
0.0
 40
0.0
 40
0.0
 40
0.0
 40
0.2499970384563942
 40
0.4999980256375726
 40
0.749999012818808
 40
1.0
 40
1.0
 40
1.0
 40
1.0
 10
23.22060841378203
 20
30.44780559003291
 30
0.0
 10
23.22081546413797
 20
30.44627660021219
 30
0.0
 10
23.22122956812022
 20
30.44321859642021
 30
0.0
 10
23.22185072577923
 20
30.44003768879987
 30
0.0
 10
23.22247188669517
 20
30.43794235604553
 30
0.0
 10
23.2228859939747
 20
30.4376837215974
 30
0.0
 10
23.22309304761447
 20
30.43755440437333
 30
0.0
  0
LINE
  5
17C
330
1F
100
AcDbEntity
  8
0
  6
Continuous
 62
     7
370
    30
100
AcDbLine
 10
5.2811237603
 20
30.4375544044
 30
0.0
 11
5.2811237603
 21
30.4715544044
 31
0.0
  0
LINE
  5
17D
330
1F
100
AcDbEntity
  8
0
  6
Continuous
 62
     7
370
    30
100
AcDbLine
 10
23.2230930476
 20
30.4375544044
 30
0.0
 11
23.2230930476
 21
30.4715544044
 31
0.0
  0
LINE
  5
17E
330
1F
100
AcDbEntity
  8
0
  6
Continuous
 62
     7
370
    30
100
AcDbLine
 10
5.2811237603
 20
30.4375544044
 30
0.0
 11
5.2670930476
 21
30.4375544044
 31
0.0
  0
LINE
  5
17F
330
1F
100
AcDbEntity
  8
0
  6
Continuous
 62
     7
370
    30
100
AcDbLine
 10
5.2670930476
 20
30.4715544044
 30
0.0
 11
5.2670930476
 21
30.4375544044
 31
0.0
  0
LINE
  5
180
330
1F
100
AcDbEntity
  8
0
  6
Continuous
 62
     7
370
    30
100
AcDbLine
 10
5.2811237603
 20
30.4715544044
 30
0.0
 11
5.2670930476
 21
30.4715544044
 31
0.0
  0
LINE
  5
181
330
1F
100
AcDbEntity
  8
0
  6
Continuous
 62
     7
370
    30
100
AcDbLine
 10
23.2230930476
 20
30.4375544044
 30
0.0
 11
23.2371237603
 21
30.4375544044
 31
0.0
  0
LINE
  5
182
330
1F
100
AcDbEntity
  8
0
  6
Continuous
 62
     7
370
    30
100
AcDbLine
 10
23.2230930476
 20
30.4715544044
 30
0.0
 11
23.2371237603
 21
30.4715544044
 31
0.0
  0
LINE
  5
183
330
1F
100
AcDbEntity
  8
0
  6
Continuous
 62
     7
370
    30
100
AcDbLine
 10
23.2371237603
 20
30.4715544044
 30
0.0
 11
23.2371237603
 21
30.4375544044
 31
0.0
  0
SPLINE
  5
184
330
1F
100
AcDbEntity
  8
0
  6
Continuous
 62
     7
370
    30
100
AcDbSpline
210
0.0
220
0.0
230
1.0
 70
     8
 71
     3
 72
    11
 73
     7
 74
     0
 42
0.00000001
 43
0.00000001
 40
0.0
 40
0.0
 40
0.0
 40
0.0
 40
0.2500000000000415
 40
0.5000000000000095
 40
0.7500000000000363
 40
1.0
 40
1.0
 40
1.0
 40
1.0
 10
5.267093047614458
 20
30.43755440437322
 30
0.0
 10
5.26250675108124
 20
30.43808050942078
 30
0.0
 10
5.253334158014808
 20
30.43913271951589
 30
0.0
 10
5.241765085216426
 20
30.44722644197517
 30
0.0
 10
5.233671362757137
 20
30.45879551477357
 30
0.0
 10
5.23261915266202
 20
30.46796810784
 30
0.0
 10
5.23209304761447
 20
30.47255440437321
 30
0.0
  0
LINE
  5
185
330
1F
100
AcDbEntity
  8
0
  6
Continuous
 62
     7
370
    30
100
AcDbLine
 10
5.2660930476
 20
30.4725544044
 30
0.0
 11
5.2320930476
 21
30.4725544044
 31
0.0
  0
SPLINE
  5
186
330
1F
100
AcDbEntity
  8
0
  6
Continuous
 62
     7
370
    30
100
AcDbSpline
210
0.0
220
0.0
230
1.0
 70
     8
 71
     3
 72
     9
 73
     5
 74
     0
 42
0.00000001
 43
0.00000001
 40
0.0
 40
0.0
 40
0.0
 40
0.0
 40
0.5000000000004017
 40
1.0
 40
1.0
 40
1.0
 40
1.0
 10
5.267093047614467
 20
30.47155440437322
 30
0.0
 10
5.26682282755721
 20
30.4716175176493
 30
0.0
 10
5.26628238744269
 20
30.47174374420144
 30
0.0
 10
5.266156160890544
 20
30.47228418431596
 30
0.0
 10
5.266093047614469
 20
30.47255440437322
 30
0.0
  0
LINE
  5
187
330
1F
100
AcDbEntity
  8
0
  6
Continuous
 62
     7
370
    30
100
AcDbLine
 10
23.2381237603
 20
30.4725544044
 30
0.0
 11
23.2721237603
 21
30.4725544044
 31
0.0
  0
SPLINE
  5
188
330
1F
100
AcDbEntity
  8
0
  6
Continuous
 62
     7
370
    30
100
AcDbSpline
210
0.0
220
0.0
230
1.0
 70
     8
 71
     3
 72
     9
 73
     5
 74
     0
 42
0.00000001
 43
0.00000001
 40
0.0
 40
0.0
 40
0.0
 40
0.0
 40
0.500000000000385
 40
1.0
 40
1.0
 40
1.0
 40
1.0
 10
23.23712376026456
 20
30.47155440437333
 30
0.0
 10
23.23739398032182
 20
30.4716175176494
 30
0.0
 10
23.23793442043634
 20
30.47174374420155
 30
0.0
 10
23.23806064698849
 20
30.47228418431608
 30
0.0
 10
23.23812376026456
 20
30.47255440437333
 30
0.0
  0
SPLINE
  5
189
330
1F
100
AcDbEntity
  8
0
  6
Continuous
 62
     7
370
    30
100
AcDbSpline
210
0.0
220
0.0
230
1.0
 70
     8
 71
     3
 72
    11
 73
     7
 74
     0
 42
0.00000001
 43
0.00000001
 40
0.0
 40
0.0
 40
0.0
 40
0.0
 40
0.2500000000000162
 40
0.5000000000000266
 40
0.7500000000000189
 40
1.0
 40
1.0
 40
1.0
 40
1.0
 10
23.23712376026456
 20
30.43755440437333
 30
0.0
 10
23.24171005679778
 20
30.4380805094209
 30
0.0
 10
23.25088264986422
 20
30.439132719516
 30
0.0
 10
23.2624517226626
 20
30.44722644197527
 30
0.0
 10
23.27054544512189
 20
30.45879551477368
 30
0.0
 10
23.27159765521701
 20
30.4679681078401
 30
0.0
 10
23.27212376026456
 20
30.47255440437333
 30
0.0
  0
LINE
  5
18A
330
1F
100
AcDbEntity
  8
0
  6
Continuous
 62
     7
370
    30
100
AcDbLine
 10
5.2320930476
 20
30.4725544044
 30
0.0
 11
5.2320930476
 21
30.4915544044
 31
0.0
  0
LINE
  5
18B
330
1F
100
AcDbEntity
  8
0
  6
Continuous
 62
     7
370
    30
100
AcDbLine
 10
5.2660930476
 20
30.4725544044
 30
0.0
 11
5.2660930476
 21
30.4866778697
 31
0.0
  0
LINE
  5
18C
330
1F
100
AcDbEntity
  8
0
  6
Continuous
 62
     7
370
    30
100
AcDbLine
 10
23.2721237603
 20
30.4725544044
 30
0.0
 11
23.2721237603
 21
30.4915544044
 31
0.0
  0
LINE
  5
18D
330
1F
100
AcDbEntity
  8
0
  6
Continuous
 62
     7
370
    30
100
AcDbLine
 10
23.2381237603
 20
30.4725544044
 30
0.0
 11
23.2381237603
 21
30.4866778697
 31
0.0
  0
LINE
  5
18E
330
1F
100
AcDbEntity
  8
0
  6
Continuous
 62
     7
370
    30
100
AcDbLine
 10
17.1891084039
 20
33.3183584623
 30
0.0
 11
17.1891084039
 21
33.3186295223
 31
0.0
  0
LINE
  5
18F
330
1F
100
AcDbEntity
  8
0
  6
Continuous
 62
     7
370
    30
100
AcDbLine
 10
17.1891084039
 20
33.3186295223
 30
0.0
 11
17.3150406025
 21
33.3186295223
 31
0.0
  0
LINE
  5
190
330
1F
100
AcDbEntity
  8
0
  6
Continuous
 62
     7
370
    30
100
AcDbLine
 10
11.1891084039
 20
33.3183584623
 30
0.0
 11
11.1891084039
 21
33.3186295223
 31
0.0
  0
LINE
  5
191
330
1F
100
AcDbEntity
  8
0
  6
Continuous
 62
     7
370
    30
100
AcDbLine
 10
11.1891084039
 20
33.3186295223
 30
0.0
 11
11.3150406025
 21
33.3186295223
 31
0.0
  0
LINE
  5
192
330
1F
100
AcDbEntity
  8
0
  6
Continuous
 62
     7
370
    30
100
AcDbLine
 10
23.1471237603
 20
36.936585117
 30
0.0
 11
23.1471237603
 21
36.973585117
 31
0.0
  0
LINE
  5
193
330
1F
100
AcDbEntity
  8
0
  6
Continuous
 62
     7
370
    30
100
AcDbLine
 10
5.3341237603
 20
36.936585117
 30
0.0
 11
23.1471237603
 21
36.936585117
 31
0.0
  0
LINE
  5
194
330
1F
100
AcDbEntity
  8
0
  6
Continuous
 62
     7
370
    30
100
AcDbLine
 10
5.3341237603
 20
36.973585117
 30
0.0
 11
5.3341237603
 21
36.936585117
 31
0.0
  0
LINE
  5
195
330
1F
100
AcDbEntity
  8
0
  6
Continuous
 62
     7
370
    30
100
AcDbLine
 10
5.3341237603
 20
36.973585117
 30
0.0
 11
23.1471237603
 21
36.973585117
 31
0.0
  0
LINE
  5
196
330
1F
100
AcDbEntity
  8
0
  6
Continuous
 62
     7
370
    30
100
AcDbLine
 10
5.3341237603
 20
36.535585117
 30
0.0
 11
23.1471237603
 21
36.535585117
 31
0.0
  0
LINE
  5
197
330
1F
100
AcDbEntity
  8
0
  6
Continuous
 62
     7
370
    30
100
AcDbLine
 10
5.3341237603
 20
36.535585117
 30
0.0
 11
5.3341237603
 21
36.936585117
 31
0.0
  0
LINE
  5
198
330
1F
100
AcDbEntity
  8
0
  6
Continuous
 62
     7
370
    30
100
AcDbLine
 10
23.1471237603
 20
36.936585117
 30
0.0
 11
23.1471237603
 21
36.535585117
 31
0.0
  0
LINE
  5
199
330
1F
100
AcDbEntity
  8
0
  6
Continuous
 62
     7
370
    30
100
AcDbLine
 10
23.1471237603
 20
1.4595236917
 30
0.0
 11
23.1471237603
 21
1.0585236917
 31
0.0
  0
LINE
  5
19A
330
1F
100
AcDbEntity
  8
0
  6
Continuous
 62
     7
370
    30
100
AcDbLine
 10
23.1471237603
 20
1.0585236917
 30
0.0
 11
5.3341237603
 21
1.0585236917
 31
0.0
  0
LINE
  5
19B
330
1F
100
AcDbEntity
  8
0
  6
Continuous
 62
     7
370
    30
100
AcDbLine
 10
5.3341237603
 20
1.4595236917
 30
0.0
 11
5.3341237603
 21
1.0585236917
 31
0.0
  0
LINE
  5
19C
330
1F
100
AcDbEntity
  8
0
  6
Continuous
 62
     7
370
    30
100
AcDbLine
 10
5.3341237603
 20
1.4595236917
 30
0.0
 11
23.1471237603
 21
1.4595236917
 31
0.0
  0
LINE
  5
19D
330
1F
100
AcDbEntity
  8
0
  6
Continuous
 62
     7
370
    30
100
AcDbLine
 10
5.3341237603
 20
1.0585236917
 30
0.0
 11
5.3341237603
 21
1.0215236917
 31
0.0
  0
LINE
  5
19E
330
1F
100
AcDbEntity
  8
0
  6
Continuous
 62
     7
370
    30
100
AcDbLine
 10
23.1471237603
 20
1.0215236917
 30
0.0
 11
23.1471237603
 21
1.0585236917
 31
0.0
  0
LINE
  5
19F
330
1F
100
AcDbEntity
  8
0
  6
Continuous
 62
     7
370
    30
100
AcDbLine
 10
23.1471237603
 20
1.0215236917
 30
0.0
 11
5.3341237603
 21
1.0215236917
 31
0.0
  0
LINE
  5
1A0
330
1F
100
AcDbEntity
  8
0
  6
Continuous
 62
     7
370
    30
100
AcDbLine
 10
5.3251237603
 20
36.8785544044
 30
0.0
 11
5.3251237603
 21
36.7820697607
 31
0.0
  0
LINE
  5
1A1
330
1F
100
AcDbEntity
  8
0
  6
Continuous
 62
     7
370
    30
100
AcDbLine
 10
5.3341237603
 20
36.8785544044
 30
0.0
 11
5.3251237603
 21
36.8785544044
 31
0.0
  0
SPLINE
  5
1A2
330
1F
100
AcDbEntity
  8
0
  6
Continuous
 62
     7
370
    30
100
AcDbSpline
210
0.0
220
0.0
230
1.0
 70
     8
 71
     3
 72
     9
 73
     5
 74
     0
 42
0.00000001
 43
0.00000001
 40
0.0
 40
0.0
 40
0.0
 40
0.0
 40
0.5449356439849539
 40
1.0
 40
1.0
 40
1.0
 40
1.0
 10
5.325123760264439
 20
36.87755440437322
 30
0.0
 10
5.325564728135065
 20
36.88220424106166
 30
0.0
 10
5.326373939049221
 20
36.89073705909212
 30
0.0
 10
5.331700041075749
 20
36.89739891956406
 30
0.0
 10
5.334123760264519
 20
36.9004304948096
 30
0.0
  0
LINE
  5
1A3
330
1F
100
AcDbEntity
  8
0
  6
Continuous
 62
     7
370
    30
100
AcDbLine
 10
5.3341237603
 20
1.1165544044
 30
0.0
 11
5.3251237603
 21
1.1165544044
 31
0.0
  0
LINE
  5
1A4
330
1F
100
AcDbEntity
  8
0
  6
Continuous
 62
     7
370
    30
100
AcDbLine
 10
5.3251237603
 20
1.1165544044
 30
0.0
 11
5.3251237603
 21
1.213039048
 31
0.0
  0
SPLINE
  5
1A5
330
1F
100
AcDbEntity
  8
0
  6
Continuous
 62
     7
370
    30
100
AcDbSpline
210
0.0
220
0.0
230
1.0
 70
     8
 71
     3
 72
     9
 73
     5
 74
     0
 42
0.00000001
 43
0.00000001
 40
0.0
 40
0.0
 40
0.0
 40
0.0
 40
0.4550643560221003
 40
1.0
 40
1.0
 40
1.0
 40
1.0
 10
5.334123760264711
 20
1.09467831393658
 30
0.0
 10
5.331700041075862
 20
1.097709889182195
 30
0.0
 10
5.326373939049256
 20
1.104371749654238
 30
0.0
 10
5.325564728135074
 20
1.112904567684803
 30
0.0
 10
5.325123760264443
 20
1.117554404373237
 30
0.0
  0
LINE
  5
1A6
330
1F
100
AcDbEntity
  8
0
  6
Continuous
 62
     8
370
    30
100
AcDbLine
 10
3.6398401755
 20
13.400583664
 30
0.0
 11
3.6398401755
 21
12.970109787
 31
0.0
  0
LINE
  5
1A7
330
1F
100
AcDbEntity
  8
0
  6
Continuous
 62
     8
370
    30
100
AcDbLine
 10
3.5953766324
 20
12.970494237
 30
0.0
 11
3.5953766324
 21
13.4029102453
 31
0.0
  0
LINE
  5
1A8
330
1F
100
AcDbEntity
  8
0
  6
Continuous
 62
     8
370
    30
100
AcDbLine
 10
3.6398401755
 20
14.1506768554
 30
0.0
 11
3.6398401755
 21
13.7434940757
 31
0.0
  0
LINE
  5
1A9
330
1F
100
AcDbEntity
  8
0
  6
Continuous
 62
     8
370
    30
100
AcDbLine
 10
3.5953766324
 20
13.7434940757
 30
0.0
 11
3.5953766324
 21
14.1527400098
 31
0.0
  0
LINE
  5
1AA
330
1F
100
AcDbEntity
  8
0
  6
Continuous
 62
     8
370
    30
100
AcDbLine
 10
45.9006084039
 20
30.5125544044
 30
0.0
 11
23.2721237603
 21
30.5125544044
 31
0.0
  0
LINE
  5
1AB
330
1F
100
AcDbEntity
  8
0
  6
Continuous
 62
     8
370
    30
100
AcDbLine
 10
5.2320930476
 20
30.5125544044
 30
0.0
 11
4.2906084039
 21
30.5125544044
 31
0.0
  0
LINE
  5
1AC
330
1F
100
AcDbEntity
  8
0
  6
Continuous
 62
     8
370
    30
100
AcDbLine
 10
4.2906084039
 20
7.5275544044
 30
0.0
 11
5.2330876095
 21
7.5275544044
 31
0.0
  0
LINE
  5
1AD
330
1F
100
AcDbEntity
  8
0
  6
Continuous
 62
     8
370
    30
100
AcDbLine
 10
23.2711291984
 20
7.5275544044
 30
0.0
 11
45.9006084039
 21
7.5275544044
 31
0.0
  0
LINE
  5
1AE
330
1F
100
AcDbEntity
  8
FORMAT
100
AcDbLine
 10
52.2857500014
 20
19.9619264326
 30
0.0
 11
52.2857500014
 21
17.8475019984
 31
0.0
  0
LINE
  5
1AF
330
1F
100
AcDbEntity
  8
FORMAT
100
AcDbLine
 10
52.2857500014
 20
17.8475019984
 30
0.0
 11
55.931542725
 21
17.8475019984
 31
0.0
  0
LINE
  5
1B0
330
1F
100
AcDbEntity
  8
FORMAT
100
AcDbLine
 10
55.931542725
 20
17.8475019984
 30
0.0
 11
55.931542725
 21
16.0854816366
 31
0.0
  0
LINE
  5
1B1
330
1F
100
AcDbEntity
  8
FORMAT
100
AcDbLine
 10
55.931542725
 20
16.0854816366
 30
0.0
 11
58.750775304
 21
18.9047142155
 31
0.0
  0
LINE
  5
1B2
330
1F
100
AcDbEntity
  8
FORMAT
100
AcDbLine
 10
58.750775304
 20
18.9047142155
 30
0.0
 11
55.931542725
 21
21.7239467945
 31
0.0
  0
LINE
  5
1B3
330
1F
100
AcDbEntity
  8
FORMAT
100
AcDbLine
 10
55.931542725
 20
21.7239467945
 30
0.0
 11
55.931542725
 21
19.9619264326
 31
0.0
  0
LINE
  5
1B4
330
1F
100
AcDbEntity
  8
FORMAT
100
AcDbLine
 10
55.931542725
 20
19.9619264326
 30
0.0
 11
52.2857500014
 21
19.9619264326
 31
0.0
  0
ENDSEC
  0
SECTION
  2
OBJECTS
  0
DICTIONARY
  5
C
330
0
100
AcDbDictionary
281
     1
  3
ACAD_GROUP
350
D
  3
ACAD_LAYOUT
350
1A
  3
ACAD_MLINESTYLE
350
17
  3
ACAD_PLOTSETTINGS
350
19
  3
ACAD_PLOTSTYLENAME
350
E
  3
ACAD_SCALELIST
350
4C
  3
AcDbVariableDictionary
350
1B5
  0
DICTIONARY
  5
D
102
{ACAD_REACTORS
330
C
102
}
330
C
100
AcDbDictionary
281
     1
  0
DICTIONARY
  5
1A
102
{ACAD_REACTORS
330
C
102
}
330
C
100
AcDbDictionary
281
     1
  3
Layout1
350
1E
  3
Layout2
350
26
  3
Model
350
22
  0
DICTIONARY
  5
17
102
{ACAD_REACTORS
330
C
102
}
330
C
100
AcDbDictionary
281
     1
  3
Standard
350
18
  0
DICTIONARY
  5
19
102
{ACAD_REACTORS
330
C
102
}
330
C
100
AcDbDictionary
281
     1
  0
ACDBDICTIONARYWDFLT
  5
E
102
{ACAD_REACTORS
330
C
102
}
330
C
100
AcDbDictionary
281
     1
  3
Normal
350
F
100
AcDbDictionaryWithDefault
340
F
  0
DICTIONARY
  5
4C
102
{ACAD_REACTORS
330
C
102
}
330
C
100
AcDbDictionary
281
     1
  3
A0
350
4D
  3
A1
350
4E
  3
A2
350
4F
  3
A3
350
50
  3
A4
350
51
  3
A5
350
52
  3
A6
350
53
  3
A7
350
54
  3
A8
350
55
  3
A9
350
56
  3
B0
350
57
  3
B1
350
58
  3
B2
350
59
  3
B3
350
5A
  3
B4
350
5B
  3
B5
350
5C
  3
B6
350
5D
  3
B7
350
5E
  3
B8
350
5F
  3
B9
350
60
  3
C0
350
61
  3
C1
350
62
  3
C2
350
63
  3
C3
350
64
  3
C4
350
65
  3
C5
350
66
  3
C6
350
67
  3
C7
350
68
  3
C8
350
69
  3
C9
350
6A
  3
D0
350
6B
  3
D1
350
6C
  3
D2
350
6D
  0
DICTIONARY
  5
1B5
102
{ACAD_REACTORS
330
C
102
}
330
C
100
AcDbDictionary
281
     1
  3
CANNOSCALE
350
1B6
  0
LAYOUT
  5
1E
102
{ACAD_REACTORS
330
1A
102
}
330
1A
100
AcDbPlotSettings
  1

  2
none_device
  4

  6

 40
0.0
 41
0.0
 42
0.0
 43
0.0
 44
0.0
 45
0.0
 46
0.0
 47
0.0
 48
0.0
 49
0.0
140
0.0
141
0.0
142
1.0
143
1.0
 70
   688
 72
     0
 73
     0
 74
     5
  7

 75
    16
147
1.0
148
0.0
149
0.0
100
AcDbLayout
  1
Layout1
 70
     1
 71
     1
 10
0.0
 20
0.0
 11
12.0
 21
9.0
 12
0.0
 22
0.0
 32
0.0
 14
1.0000000000E+20
 24
1.0000000000E+20
 34
1.0000000000E+20
 15
-1.0000000000E+20
 25
-1.0000000000E+20
 35
-1.0000000000E+20
146
0.0
 13
0.0
 23
0.0
 33
0.0
 16
1.0
 26
0.0
 36
0.0
 17
0.0
 27
1.0
 37
0.0
 76
     0
330
1B
  0
LAYOUT
  5
26
102
{ACAD_REACTORS
330
1A
102
}
330
1A
100
AcDbPlotSettings
  1

  2
none_device
  4

  6

 40
0.0
 41
0.0
 42
0.0
 43
0.0
 44
0.0
 45
0.0
 46
0.0
 47
0.0
 48
0.0
 49
0.0
140
0.0
141
0.0
142
1.0
143
1.0
 70
   688
 72
     0
 73
     0
 74
     5
  7

 75
    16
147
1.0
148
0.0
149
0.0
100
AcDbLayout
  1
Layout2
 70
     1
 71
     2
 10
0.0
 20
0.0
 11
0.0
 21
0.0
 12
0.0
 22
0.0
 32
0.0
 14
0.0
 24
0.0
 34
0.0
 15
0.0
 25
0.0
 35
0.0
146
0.0
 13
0.0
 23
0.0
 33
0.0
 16
1.0
 26
0.0
 36
0.0
 17
0.0
 27
1.0
 37
0.0
 76
     0
330
23
  0
LAYOUT
  5
22
102
{ACAD_REACTORS
330
1A
102
}
330
1A
100
AcDbPlotSettings
  1

  2
none_device
  4

  6

 40
0.0
 41
0.0
 42
0.0
 43
0.0
 44
0.0
 45
0.0
 46
0.0
 47
0.0
 48
0.0
 49
0.0
140
0.0
141
0.0
142
1.0
143
1.0
 70
  1712
 72
     0
 73
     0
 74
     0
  7

 75
     0
147
1.0
148
0.0
149
0.0
100
AcDbLayout
  1
Model
 70
     1
 71
     0
 10
0.0
 20
0.0
 11
60.0
 21
38.0
 12
0.0
 22
0.0
 32
0.0
 14
0.0
 24
0.0
 34
0.0
 15
60.0
 25
38.0
 35
0.0
146
0.0
 13
0.0
 23
0.0
 33
0.0
 16
1.0
 26
0.0
 36
0.0
 17
0.0
 27
1.0
 37
0.0
 76
     0
330
1F
331
29
  0
MLINESTYLE
  5
18
102
{ACAD_REACTORS
330
17
102
}
330
17
100
AcDbMlineStyle
  2
Standard
 70
     0
  3

 62
   256
 51
90.0
 52
90.0
 71
     2
 49
0.5
 62
   256
  6
BYLAYER
 49
-0.5
 62
   256
  6
BYLAYER
  0
ACDBPLACEHOLDER
  5
F
102
{ACAD_REACTORS
330
E
102
}
330
E
  0
SCALE
  5
4D
102
{ACAD_REACTORS
330
4C
102
}
330
4C
100
AcDbScale
 70
     0
300
1:1
140
1.0
141
1.0
290
     1
  0
SCALE
  5
4E
102
{ACAD_REACTORS
330
4C
102
}
330
4C
100
AcDbScale
 70
     0
300
1:2
140
1.0
141
2.0
290
     0
  0
SCALE
  5
4F
102
{ACAD_REACTORS
330
4C
102
}
330
4C
100
AcDbScale
 70
     0
300
1:4
140
1.0
141
4.0
290
     0
  0
SCALE
  5
50
102
{ACAD_REACTORS
330
4C
102
}
330
4C
100
AcDbScale
 70
     0
300
1:5
140
1.0
141
5.0
290
     0
  0
SCALE
  5
51
102
{ACAD_REACTORS
330
4C
102
}
330
4C
100
AcDbScale
 70
     0
300
1:8
140
1.0
141
8.0
290
     0
  0
SCALE
  5
52
102
{ACAD_REACTORS
330
4C
102
}
330
4C
100
AcDbScale
 70
     0
300
1:10
140
1.0
141
10.0
290
     0
  0
SCALE
  5
53
102
{ACAD_REACTORS
330
4C
102
}
330
4C
100
AcDbScale
 70
     0
300
1:16
140
1.0
141
16.0
290
     0
  0
SCALE
  5
54
102
{ACAD_REACTORS
330
4C
102
}
330
4C
100
AcDbScale
 70
     0
300
1:20
140
1.0
141
20.0
290
     0
  0
SCALE
  5
55
102
{ACAD_REACTORS
330
4C
102
}
330
4C
100
AcDbScale
 70
     0
300
1:30
140
1.0
141
30.0
290
     0
  0
SCALE
  5
56
102
{ACAD_REACTORS
330
4C
102
}
330
4C
100
AcDbScale
 70
     0
300
1:40
140
1.0
141
40.0
290
     0
  0
SCALE
  5
57
102
{ACAD_REACTORS
330
4C
102
}
330
4C
100
AcDbScale
 70
     0
300
1:50
140
1.0
141
50.0
290
     0
  0
SCALE
  5
58
102
{ACAD_REACTORS
330
4C
102
}
330
4C
100
AcDbScale
 70
     0
300
1:100
140
1.0
141
100.0
290
     0
  0
SCALE
  5
59
102
{ACAD_REACTORS
330
4C
102
}
330
4C
100
AcDbScale
 70
     0
300
2:1
140
2.0
141
1.0
290
     0
  0
SCALE
  5
5A
102
{ACAD_REACTORS
330
4C
102
}
330
4C
100
AcDbScale
 70
     0
300
4:1
140
4.0
141
1.0
290
     0
  0
SCALE
  5
5B
102
{ACAD_REACTORS
330
4C
102
}
330
4C
100
AcDbScale
 70
     0
300
8:1
140
8.0
141
1.0
290
     0
  0
SCALE
  5
5C
102
{ACAD_REACTORS
330
4C
102
}
330
4C
100
AcDbScale
 70
     0
300
10:1
140
10.0
141
1.0
290
     0
  0
SCALE
  5
5D
102
{ACAD_REACTORS
330
4C
102
}
330
4C
100
AcDbScale
 70
     0
300
100:1
140
100.0
141
1.0
290
     0
  0
SCALE
  5
5E
102
{ACAD_REACTORS
330
4C
102
}
330
4C
100
AcDbScale
 70
     0
300
1/128" = 1'-0"
140
0.0078125
141
12.0
290
     0
  0
SCALE
  5
5F
102
{ACAD_REACTORS
330
4C
102
}
330
4C
100
AcDbScale
 70
     0
300
1/64" = 1'-0"
140
0.015625
141
12.0
290
     0
  0
SCALE
  5
60
102
{ACAD_REACTORS
330
4C
102
}
330
4C
100
AcDbScale
 70
     0
300
1/32" = 1'-0"
140
0.03125
141
12.0
290
     0
  0
SCALE
  5
61
102
{ACAD_REACTORS
330
4C
102
}
330
4C
100
AcDbScale
 70
     0
300
1/16" = 1'-0"
140
0.0625
141
12.0
290
     0
  0
SCALE
  5
62
102
{ACAD_REACTORS
330
4C
102
}
330
4C
100
AcDbScale
 70
     0
300
3/32" = 1'-0"
140
0.09375
141
12.0
290
     0
  0
SCALE
  5
63
102
{ACAD_REACTORS
330
4C
102
}
330
4C
100
AcDbScale
 70
     0
300
1/8" = 1'-0"
140
0.125
141
12.0
290
     0
  0
SCALE
  5
64
102
{ACAD_REACTORS
330
4C
102
}
330
4C
100
AcDbScale
 70
     0
300
3/16" = 1'-0"
140
0.1875
141
12.0
290
     0
  0
SCALE
  5
65
102
{ACAD_REACTORS
330
4C
102
}
330
4C
100
AcDbScale
 70
     0
300
1/4" = 1'-0"
140
0.25
141
12.0
290
     0
  0
SCALE
  5
66
102
{ACAD_REACTORS
330
4C
102
}
330
4C
100
AcDbScale
 70
     0
300
3/8" = 1'-0"
140
0.375
141
12.0
290
     0
  0
SCALE
  5
67
102
{ACAD_REACTORS
330
4C
102
}
330
4C
100
AcDbScale
 70
     0
300
1/2" = 1'-0"
140
0.5
141
12.0
290
     0
  0
SCALE
  5
68
102
{ACAD_REACTORS
330
4C
102
}
330
4C
100
AcDbScale
 70
     0
300
3/4" = 1'-0"
140
0.75
141
12.0
290
     0
  0
SCALE
  5
69
102
{ACAD_REACTORS
330
4C
102
}
330
4C
100
AcDbScale
 70
     0
300
1" = 1'-0"
140
1.0
141
12.0
290
     0
  0
SCALE
  5
6A
102
{ACAD_REACTORS
330
4C
102
}
330
4C
100
AcDbScale
 70
     0
300
1-1/2" = 1'-0"
140
1.5
141
12.0
290
     0
  0
SCALE
  5
6B
102
{ACAD_REACTORS
330
4C
102
}
330
4C
100
AcDbScale
 70
     0
300
3" = 1'-0"
140
3.0
141
12.0
290
     0
  0
SCALE
  5
6C
102
{ACAD_REACTORS
330
4C
102
}
330
4C
100
AcDbScale
 70
     0
300
6" = 1'-0"
140
6.0
141
12.0
290
     0
  0
SCALE
  5
6D
102
{ACAD_REACTORS
330
4C
102
}
330
4C
100
AcDbScale
 70
     0
300
1'-0" = 1'-0"
140
12.0
141
12.0
290
     0
  0
DICTIONARYVAR
  5
1B6
102
{ACAD_REACTORS
330
1B5
102
}
330
1B5
100
DictionaryVariables
280
     0
  1
1:1
  0
ENDSEC
  0
EOF
